0
SECTION
2
HEADER
9
$INSUNITS
70
4
9
$ACADVER
1
AC1014
9
$HANDSEED
5
FFFF
0
ENDSEC
0
SECTION
2
TABLES
0
TABLE
2
VPORT
5
8
100
AcDbSymbolTable
0
ENDTAB
0
TABLE
2
LTYPE
5
5
100
AcDbSymbolTable
0
LTYPE
5
14
100
AcDbSymbolTableRecord
100
AcDbLinetypeTableRecord
2
BYBLOCK
70
0
0
LTYPE
5
15
100
AcDbSymbolTableRecord
100
AcDbLinetypeTableRecord
2
BYLAYER
70
0
0
ENDTAB
0
TABLE
2
LAYER
5
2
100
AcDbSymbolTable
70
2
0
LAYER
5
50
100
AcDbSymbolTableRecord
100
AcDbLayerTableRecord
2
0
70
0
6
CONTINUOUS
0
ENDTAB
0
TABLE
2
STYLE
5
3
100
AcDbSymbolTable
70
1
0
STYLE
5
11
100
AcDbSymbolTableRecord
100
AcDbTextStyleTableRecord
2
STANDARD
70
0
0
ENDTAB
0
TABLE
2
VIEW
5
6
100
AcDbSymbolTable
70
0
0
ENDTAB
0
TABLE
2
UCS
5
7
100
AcDbSymbolTable
70
0
0
ENDTAB
0
TABLE
2
APPID
5
9
100
AcDbSymbolTable
70
2
0
APPID
5
12
100
AcDbSymbolTableRecord
100
AcDbRegAppTableRecord
2
ACAD
70
0
0
ENDTAB
0
TABLE
2
DIMSTYLE
5
A
100
AcDbSymbolTable
70
1
0
ENDTAB
0
TABLE
2
BLOCK_RECORD
5
1
100
AcDbSymbolTable
70
1
0
BLOCK_RECORD
5
1F
100
AcDbSymbolTableRecord
100
AcDbBlockTableRecord
2
*MODEL_SPACE
0
BLOCK_RECORD
5
1B
100
AcDbSymbolTableRecord
100
AcDbBlockTableRecord
2
*PAPER_SPACE
0
ENDTAB
0
ENDSEC
0
SECTION
2
BLOCKS
0
BLOCK
5
20
100
AcDbEntity
100
AcDbBlockBegin
2
*MODEL_SPACE
0
ENDBLK
5
21
100
AcDbEntity
100
AcDbBlockEnd
0
BLOCK
5
1C
100
AcDbEntity
100
AcDbBlockBegin
2
*PAPER_SPACE
0
ENDBLK
5
1D
100
AcDbEntity
100
AcDbBlockEnd
0
ENDSEC
0
SECTION
2
ENTITIES
0
LWPOLYLINE
5
100
100
AcDbEntity
8
0
100
AcDbPolyline
90
4
70
1
43
0.0
10
0.99999999999999645
20
1.0000000000000036
10
15.999999999999996
20
1.0000000000000031
10
15.999999999999996
20
10.000000000000002
10
0.99999999999999756
20
10.000000000000002
0
LWPOLYLINE
5
101
100
AcDbEntity
8
0
100
AcDbPolyline
90
4
70
1
43
0.0
10
16.999999999999996
20
1.0000000000000036
10
31.999999999999996
20
1.0000000000000031
10
31.999999999999996
20
10.000000000000002
10
16.999999999999996
20
10.000000000000002
0
LWPOLYLINE
5
102
100
AcDbEntity
8
0
100
AcDbPolyline
90
4
70
1
43
0.0
10
33
20
1.0000000000000036
10
48
20
1.0000000000000031
10
48
20
10.000000000000002
10
33
20
10.000000000000002
0
LWPOLYLINE
5
103
100
AcDbEntity
8
0
100
AcDbPolyline
90
4
70
1
43
0.0
10
49
20
1.0000000000000036
10
64
20
1.0000000000000031
10
64
20
10.000000000000002
10
49
20
10.000000000000002
0
LWPOLYLINE
5
104
100
AcDbEntity
8
0
100
AcDbPolyline
90
4
70
1
43
0.0
10
65
20
1.0000000000000036
10
80
20
1.0000000000000031
10
80
20
10.000000000000002
10
65
20
10.000000000000002
0
LWPOLYLINE
5
105
100
AcDbEntity
8
0
100
AcDbPolyline
90
4
70
1
43
0.0
10
81
20
1.0000000000000036
10
96
20
1.0000000000000031
10
96
20
10.000000000000002
10
81
20
10.000000000000002
0
LWPOLYLINE
5
106
100
AcDbEntity
8
0
100
AcDbPolyline
90
4
70
1
43
0.0
10
97
20
1.0000000000000036
10
112
20
1.0000000000000031
10
112
20
10.000000000000002
10
97
20
10.000000000000002
0
LWPOLYLINE
5
107
100
AcDbEntity
8
0
100
AcDbPolyline
90
4
70
1
43
0.0
10
113
20
1.0000000000000036
10
128
20
1.0000000000000031
10
128
20
10.000000000000002
10
113
20
10.000000000000002
0
LWPOLYLINE
5
108
100
AcDbEntity
8
0
100
AcDbPolyline
90
4
70
1
43
0.0
10
141.01002239299848
20
1.0000000000000036
10
135.01002239299848
20
1.0000000000000031
10
135.01002239299848
20
10.000000000000004
10
141.01002239299848
20
10.000000000000004
0
LWPOLYLINE
5
109
100
AcDbEntity
8
0
100
AcDbPolyline
90
4
70
1
43
0.0
10
148.01002239299848
20
1.0000000000000036
10
142.01002239299848
20
1.0000000000000031
10
142.01002239299848
20
10.000000000000004
10
148.01002239299848
20
10.000000000000004
0
LWPOLYLINE
5
110
100
AcDbEntity
8
0
100
AcDbPolyline
90
4
70
1
43
0.0
10
155.01002239299848
20
10.000000000000004
10
155.01002239299848
20
1.0000000000000036
10
149.01002239299851
20
1.0000000000000031
10
149.01002239299851
20
10.000000000000004
0
LWPOLYLINE
5
111
100
AcDbEntity
8
0
100
AcDbPolyline
90
4
70
1
43
0.0
10
162.01002239299845
20
10.000000000000004
10
162.01002239299845
20
1.0000000000000036
10
156.01002239299848
20
1.0000000000000031
10
156.01002239299848
20
10.000000000000004
0
LWPOLYLINE
5
112
100
AcDbEntity
8
0
100
AcDbPolyline
90
4
70
1
43
0.0
10
169.01002239299851
20
10.000000000000004
10
169.01002239299851
20
1.0000000000000036
10
163.01002239299848
20
1.0000000000000031
10
163.01002239299848
20
10.000000000000004
0
LWPOLYLINE
5
113
100
AcDbEntity
8
0
100
AcDbPolyline
90
4
70
1
43
0.0
10
176.01002239299845
20
10.000000000000004
10
176.01002239299845
20
1.0000000000000036
10
170.01002239299851
20
1.0000000000000031
10
170.01002239299851
20
10.000000000000004
0
LWPOLYLINE
5
114
100
AcDbEntity
8
0
100
AcDbPolyline
90
4
70
1
43
0.0
10
8.0000000149011612
20
11.000000163912773
10
1.0000000149011612
20
11.000000163912773
10
1.0000000149011612
20
20.000000163912773
10
8.0000000149011612
20
20.000000163912773
0
LWPOLYLINE
5
115
100
AcDbEntity
8
0
100
AcDbPolyline
90
4
70
1
43
0.0
10
16.000000014901161
20
11.000000163912773
10
9.0000000149011612
20
11.000000163912773
10
9.0000000149011612
20
20.000000163912773
10
16.000000014901161
20
20.000000163912773
0
LWPOLYLINE
5
116
100
AcDbEntity
8
0
100
AcDbPolyline
90
4
70
1
43
0.0
10
24.000000014901165
20
11.000000163912773
10
17.000000014901161
20
11.000000163912773
10
17.000000014901161
20
20.000000163912773
10
24.000000014901165
20
20.000000163912773
0
LWPOLYLINE
5
117
100
AcDbEntity
8
0
100
AcDbPolyline
90
4
70
1
43
0.0
10
32.000000014901161
20
11.000000163912773
10
25.000000014901165
20
11.000000163912773
10
25.000000014901165
20
20.000000163912773
10
32.000000014901161
20
20.000000163912773
0
LWPOLYLINE
5
118
100
AcDbEntity
8
0
100
AcDbPolyline
90
4
70
1
43
0.0
10
40.000000014901161
20
11.000000163912773
10
33.000000014901161
20
11.000000163912773
10
33.000000014901161
20
20.000000163912773
10
40.000000014901161
20
20.000000163912773
0
LWPOLYLINE
5
119
100
AcDbEntity
8
0
100
AcDbPolyline
90
4
70
1
43
0.0
10
48.000000014901161
20
11.000000163912773
10
41.000000014901161
20
11.000000163912773
10
41.000000014901161
20
20.000000163912773
10
48.000000014901161
20
20.000000163912773
0
LWPOLYLINE
5
120
100
AcDbEntity
8
0
100
AcDbPolyline
90
4
70
1
43
0.0
10
77.000000730156898
20
11.000000163912773
10
65.000000730156898
20
11.000000163912773
10
65.000000730156898
20
20.000000163912773
10
77.000000730156898
20
20.000000163912773
0
LWPOLYLINE
5
121
100
AcDbEntity
8
0
100
AcDbPolyline
90
4
70
1
43
0.0
10
90.000000923871994
20
11.000000163912773
10
78.000000923871994
20
11.000000163912773
10
78.000000923871994
20
17.000000163912773
10
90.000000923871994
20
17.000000163912773
0
LWPOLYLINE
5
122
100
AcDbEntity
8
0
100
AcDbPolyline
90
4
70
1
43
0.0
10
90.000000923871994
20
20.000000298023224
10
78.000000923871994
20
20.000000298023224
10
78.000000923871994
20
17.500000298023224
10
90.000000923871994
20
17.500000298023224
0
LWPOLYLINE
5
123
100
AcDbEntity
8
0
100
AcDbPolyline
90
4
70
1
43
0.0
10
103.0000007301569
20
11.000000163912773
10
91.000000730156898
20
11.000000163912773
10
91.000000730156898
20
20.000000163912773
10
103.0000007301569
20
20.000000163912773
0
LWPOLYLINE
5
124
100
AcDbEntity
8
0
100
AcDbPolyline
90
4
70
1
43
0.0
10
104.00000092387199
20
17.500000298023224
10
116.00000092387199
20
17.500000298023224
10
116.00000092387199
20
20.000000298023224
10
104.00000092387199
20
20.000000298023224
0
LWPOLYLINE
5
125
100
AcDbEntity
8
0
100
AcDbPolyline
90
4
70
1
43
0.0
10
104.00000092387199
20
11.000000163912773
10
104.00000092387199
20
17.000000163912773
10
116.00000092387199
20
17.000000163912773
10
116.00000092387199
20
11.000000163912773
0
LWPOLYLINE
5
126
100
AcDbEntity
8
0
100
AcDbPolyline
90
4
70
1
43
0.0
10
131.00000150501731
20
11.000000163912773
10
123.00000150501729
20
11.000000163912773
10
123.00000150501729
20
20.000000163912773
10
131.00000150501731
20
20.000000163912773
0
LWPOLYLINE
5
127
100
AcDbEntity
8
0
100
AcDbPolyline
90
4
70
1
43
0.0
10
132.00000150501728
20
20.000000163912773
10
140.00000150501731
20
20.000000163912773
10
140.00000150501731
20
11.000000163912773
10
132.00000150501728
20
11.000000163912773
0
LWPOLYLINE
5
128
100
AcDbEntity
8
0
100
AcDbPolyline
90
4
70
1
43
0.0
10
149.00000150501731
20
11.000000163912773
10
141.00000150501731
20
11.000000163912773
10
141.00000150501731
20
20.000000163912773
10
149.00000150501731
20
20.000000163912773
0
LWPOLYLINE
5
129
100
AcDbEntity
8
0
100
AcDbPolyline
90
4
70
1
43
0.0
10
158.00000150501731
20
11.000000163912773
10
150.00000150501731
20
11.000000163912773
10
150.00000150501731
20
20.000000163912773
10
158.00000150501731
20
20.000000163912773
0
LWPOLYLINE
5
130
100
AcDbEntity
8
0
100
AcDbPolyline
90
4
70
1
43
0.0
10
159.00000150501731
20
20.000000163912773
10
167.00000150501728
20
20.000000163912773
10
167.00000150501728
20
11.000000163912773
10
159.00000150501731
20
11.000000163912773
0
LWPOLYLINE
5
131
100
AcDbEntity
8
0
100
AcDbPolyline
90
4
70
1
43
0.0
10
168.00000150501731
20
20.000000163912773
10
176.00000150501731
20
20.000000163912773
10
176.00000150501731
20
11.000000163912773
10
168.00000150501731
20
11.000000163912773
0
LWPOLYLINE
5
132
100
AcDbEntity
8
0
100
AcDbPolyline
90
4
70
1
43
0.0
10
12.20000001490116
20
21.000000312924385
10
1.0000000149011612
20
21.000000312924385
10
1.0000000149011612
20
30.000000312924385
10
12.20000001490116
20
30.000000312924385
0
LWPOLYLINE
5
133
100
AcDbEntity
8
0
100
AcDbPolyline
90
4
70
1
43
0.0
10
25.20000001490116
20
21.000000312924385
10
14.000000014901159
20
21.000000312924385
10
14.000000014901159
20
30.000000312924385
10
25.20000001490116
20
30.000000312924385
0
LWPOLYLINE
5
134
100
AcDbEntity
8
0
100
AcDbPolyline
90
4
70
1
43
0.0
10
38.200000014901157
20
21.000000312924385
10
27.000000014901161
20
21.000000312924385
10
27.000000014901161
20
30.000000312924385
10
38.200000014901157
20
30.000000312924385
0
LWPOLYLINE
5
135
100
AcDbEntity
8
0
100
AcDbPolyline
90
4
70
1
43
0.0
10
51.200000014901157
20
21.000000312924385
10
40.000000014901161
20
21.000000312924385
10
40.000000014901161
20
30.000000312924385
10
51.200000014901157
20
30.000000312924385
0
LWPOLYLINE
5
136
100
AcDbEntity
8
0
100
AcDbPolyline
90
4
70
1
43
0.0
10
64.20000001490115
20
21.000000312924385
10
53.000000014901154
20
21.000000312924385
10
53.000000014901154
20
30.000000312924385
10
64.20000001490115
20
30.000000312924385
0
LWPOLYLINE
5
137
100
AcDbEntity
8
0
100
AcDbPolyline
90
4
70
1
43
0.0
10
77.20000001490115
20
21.000000312924385
10
66.000000014901161
20
21.000000312924385
10
66.000000014901161
20
30.000000312924385
10
77.20000001490115
20
30.000000312924385
0
ENDSEC
0
SECTION
2
OBJECTS
0
DICTIONARY
5
C
100
AcDbDictionary
3
ACAD_GROUP
350
D
3
ACAD_MLINESTYLE
350
17
0
DICTIONARY
5
D
100
AcDbDictionary
0
DICTIONARY
5
1A
330
C
100
AcDbDictionary
0
DICTIONARY
5
17
100
AcDbDictionary
0
ENDSEC
0
EOF
