0
SECTION
2
HEADER
9
$INSUNITS
70
4
9
$ACADVER
1
AC1014
9
$HANDSEED
5
FFFF
0
ENDSEC
0
SECTION
2
TABLES
0
TABLE
2
VPORT
5
8
100
AcDbSymbolTable
0
ENDTAB
0
TABLE
2
LTYPE
5
5
100
AcDbSymbolTable
0
LTYPE
5
14
100
AcDbSymbolTableRecord
100
AcDbLinetypeTableRecord
2
BYBLOCK
70
0
0
LTYPE
5
15
100
AcDbSymbolTableRecord
100
AcDbLinetypeTableRecord
2
BYLAYER
70
0
0
ENDTAB
0
TABLE
2
LAYER
5
2
100
AcDbSymbolTable
70
2
0
LAYER
5
50
100
AcDbSymbolTableRecord
100
AcDbLayerTableRecord
2
0
70
0
6
CONTINUOUS
0
ENDTAB
0
TABLE
2
STYLE
5
3
100
AcDbSymbolTable
70
1
0
STYLE
5
11
100
AcDbSymbolTableRecord
100
AcDbTextStyleTableRecord
2
STANDARD
70
0
0
ENDTAB
0
TABLE
2
VIEW
5
6
100
AcDbSymbolTable
70
0
0
ENDTAB
0
TABLE
2
UCS
5
7
100
AcDbSymbolTable
70
0
0
ENDTAB
0
TABLE
2
APPID
5
9
100
AcDbSymbolTable
70
2
0
APPID
5
12
100
AcDbSymbolTableRecord
100
AcDbRegAppTableRecord
2
ACAD
70
0
0
ENDTAB
0
TABLE
2
DIMSTYLE
5
A
100
AcDbSymbolTable
70
1
0
ENDTAB
0
TABLE
2
BLOCK_RECORD
5
1
100
AcDbSymbolTable
70
1
0
BLOCK_RECORD
5
1F
100
AcDbSymbolTableRecord
100
AcDbBlockTableRecord
2
*MODEL_SPACE
0
BLOCK_RECORD
5
1B
100
AcDbSymbolTableRecord
100
AcDbBlockTableRecord
2
*PAPER_SPACE
0
ENDTAB
0
ENDSEC
0
SECTION
2
BLOCKS
0
BLOCK
5
20
100
AcDbEntity
100
AcDbBlockBegin
2
*MODEL_SPACE
0
ENDBLK
5
21
100
AcDbEntity
100
AcDbBlockEnd
0
BLOCK
5
1C
100
AcDbEntity
100
AcDbBlockBegin
2
*PAPER_SPACE
0
ENDBLK
5
1D
100
AcDbEntity
100
AcDbBlockEnd
0
ENDSEC
0
SECTION
2
ENTITIES
0
LWPOLYLINE
5
100
100
AcDbEntity
8
0
100
AcDbPolyline
90
8
70
1
43
0.0
10
10.800000000000001
20
1.5000001341104552
42
-0.41421356237309503
10
10.300000000000001
20
1.0000001341104547
10
1.5000000000000002
20
1.0000001341104552
42
-0.41421356237309503
10
1.0000000000000009
20
1.5000001341104552
10
1.000000000000002
20
7.6000001341104557
42
-0.4142135623730957
10
1.5000000000000013
20
8.1000001341104539
10
10.299999999999997
20
8.1000001341104539
42
-0.41421356237309437
10
10.800000000000001
20
7.6000001341104548
0
LWPOLYLINE
5
101
100
AcDbEntity
8
0
100
AcDbPolyline
90
8
70
1
43
0.0
10
12.5
20
1.0000001341104565
42
-0.41421356237309503
10
12.000000000000002
20
1.5000001341104552
10
12.000000000000002
20
7.6000001341104557
42
-0.41421356237309631
10
12.500000000000002
20
8.1000001341104539
10
21.299999999999997
20
8.1000001341104557
42
-0.41421356237309437
10
21.800000000000001
20
7.6000001341104548
10
21.799999999999997
20
1.5000001341104552
42
-0.41421356237309503
10
21.299999999999997
20
1.0000001341104547
0
LWPOLYLINE
5
102
100
AcDbEntity
8
0
100
AcDbPolyline
90
8
70
1
43
0.0
10
32.800000000000004
20
1.5000001341104552
42
-0.41421356237309503
10
32.300000000000004
20
1.0000001341104547
10
23.5
20
1.0000001341104565
42
-0.41421356237309503
10
23.000000000000004
20
1.5000001341104552
10
23.000000000000004
20
7.6000001341104557
42
-0.41421356237309764
10
23.500000000000007
20
8.1000001341104539
10
32.300000000000004
20
8.1000001341104522
42
-0.41421356237309437
10
32.800000000000004
20
7.6000001341104548
0
LWPOLYLINE
5
103
100
AcDbEntity
8
0
100
AcDbPolyline
90
8
70
1
43
0.0
10
34
20
7.6000001341104557
42
-0.41421356237309503
10
34.5
20
8.1000001341104539
10
43.299999999999997
20
8.100000134110461
42
-0.41421356237309437
10
43.800000000000011
20
7.6000001341104548
10
43.799999999999997
20
1.5000001341104552
42
-0.41421356237309503
10
43.299999999999997
20
1.0000001341104547
10
34.5
20
1.0000001341104565
42
-0.41421356237309503
10
34
20
1.5000001341104552
0
LWPOLYLINE
5
104
100
AcDbEntity
8
0
100
AcDbPolyline
90
8
70
1
43
0.0
10
54.300000000000004
20
8.1000001341104522
42
-0.41421356237309437
10
54.800000000000004
20
7.6000001341104548
10
54.800000000000004
20
1.5000001341104552
42
-0.41421356237309503
10
54.300000000000004
20
1.0000001341104547
10
45.500000000000007
20
1.0000001341104476
42
-0.41421356237309503
10
45
20
1.5000001341104552
10
45.000000000000007
20
7.6000001341104557
42
-0.41421356237309503
10
45.500000000000007
20
8.1000001341104539
0
LWPOLYLINE
5
105
100
AcDbEntity
8
0
100
AcDbPolyline
90
8
70
1
43
0.0
10
65.299999999999997
20
8.100000134110461
42
-0.41421356237309437
10
65.800000000000011
20
7.6000001341104548
10
65.799999999999997
20
1.5000001341104552
42
-0.41421356237309503
10
65.299999999999997
20
1.0000001341104547
10
56.5
20
1.0000001341104565
42
-0.41421356237309503
10
56.000000000000007
20
1.5000001341104552
10
56.000000000000007
20
7.6000001341104557
42
-0.41421356237309503
10
56.5
20
8.1000001341104539
0
LWPOLYLINE
5
106
100
AcDbEntity
8
0
100
AcDbPolyline
90
4
70
1
43
0.0
10
70.000000029802322
20
8.2000002831220637
10
70.000000029802322
20
1.0000002831220645
10
81.500000029802337
20
1.0000002831220645
10
81.500000029802337
20
8.2000002831220637
0
LWPOLYLINE
5
107
100
AcDbEntity
8
0
100
AcDbPolyline
90
4
70
1
43
0.0
10
83.000000029802337
20
1.0000002831220645
10
94.500000029802337
20
1.0000002831220645
10
94.500000029802337
20
8.2000002831220637
10
83.000000029802337
20
8.2000002831220637
0
LWPOLYLINE
5
108
100
AcDbEntity
8
0
100
AcDbPolyline
90
4
70
1
43
0.0
10
96.000000029802351
20
1.0000002831220645
10
107.50000002980232
20
1.0000002831220645
10
107.50000002980232
20
8.2000002831220637
10
96.000000029802351
20
8.2000002831220637
0
LWPOLYLINE
5
109
100
AcDbEntity
8
0
100
AcDbPolyline
90
4
70
1
43
0.0
10
109.00000002980235
20
1.0000002831220645
10
120.50000002980234
20
1.0000002831220645
10
120.50000002980234
20
8.2000002831220637
10
109.00000002980235
20
8.2000002831220637
0
LWPOLYLINE
5
110
100
AcDbEntity
8
0
100
AcDbPolyline
90
4
70
1
43
0.0
10
122.00000002980234
20
1.0000002831220645
10
133.50000002980232
20
1.0000002831220645
10
133.50000002980232
20
8.2000002831220637
10
122.00000002980234
20
8.2000002831220637
0
LWPOLYLINE
5
111
100
AcDbEntity
8
0
100
AcDbPolyline
90
4
70
1
43
0.0
10
135.00000002980235
20
1.0000002831220645
10
146.50000002980232
20
1.0000002831220645
10
146.50000002980232
20
8.2000002831220637
10
135.00000002980235
20
8.2000002831220637
0
LWPOLYLINE
5
112
100
AcDbEntity
8
0
100
AcDbPolyline
90
4
70
1
43
0.0
10
1.0000000298023215
20
16.700000283122062
10
1.0000000298023215
20
9.5000002831220627
10
10.200000029802322
20
9.5000002831220627
10
10.200000029802322
20
16.700000283122062
0
LWPOLYLINE
5
113
100
AcDbEntity
8
0
100
AcDbPolyline
90
4
70
1
43
0.0
10
12.000000029802322
20
9.5000002831220627
10
21.200000029802322
20
9.5000002831220627
10
21.200000029802322
20
16.700000283122062
10
12.000000029802322
20
16.700000283122062
0
LWPOLYLINE
5
114
100
AcDbEntity
8
0
100
AcDbPolyline
90
4
70
1
43
0.0
10
32.200000029802325
20
16.700000283122062
10
23.000000029802322
20
16.700000283122062
10
23.000000029802322
20
9.5000002831220627
10
32.200000029802325
20
9.5000002831220627
0
LWPOLYLINE
5
115
100
AcDbEntity
8
0
100
AcDbPolyline
90
4
70
1
43
0.0
10
43.200000029802325
20
16.700000283122062
10
34.000000029802322
20
16.700000283122062
10
34.000000029802322
20
9.5000002831220627
10
43.200000029802325
20
9.5000002831220627
0
LWPOLYLINE
5
116
100
AcDbEntity
8
0
100
AcDbPolyline
90
4
70
1
43
0.0
10
45.000000029802322
20
9.5000002831220627
10
54.200000029802318
20
9.5000002831220627
10
54.200000029802318
20
16.700000283122062
10
45.000000029802322
20
16.700000283122062
0
LWPOLYLINE
5
117
100
AcDbEntity
8
0
100
AcDbPolyline
90
4
70
1
43
0.0
10
56.000000029802322
20
9.5000002831220627
10
65.200000029802325
20
9.5000002831220627
10
65.200000029802325
20
16.700000283122062
10
56.000000029802322
20
16.700000283122062
0
LWPOLYLINE
5
118
100
AcDbEntity
8
0
100
AcDbPolyline
90
4
70
1
43
0.0
10
70.000000521540656
20
9.5000002831220627
10
77.550000521540639
20
9.5000002831220627
10
77.550000521540639
20
16.80000028312206
10
70.000000521540656
20
16.80000028312206
0
LWPOLYLINE
5
119
100
AcDbEntity
8
0
100
AcDbPolyline
90
4
70
1
43
0.0
10
80.000000521540656
20
9.5000002831220627
10
87.550000521540653
20
9.5000002831220627
10
87.550000521540653
20
16.80000028312206
10
80.000000521540656
20
16.80000028312206
0
LWPOLYLINE
5
120
100
AcDbEntity
8
0
100
AcDbPolyline
90
4
70
1
43
0.0
10
90.000000521540656
20
9.5000002831220627
10
97.550000521540653
20
9.5000002831220627
10
97.550000521540653
20
16.80000028312206
10
90.000000521540656
20
16.80000028312206
0
LWPOLYLINE
5
121
100
AcDbEntity
8
0
100
AcDbPolyline
90
4
70
1
43
0.0
10
100.00000052154067
20
9.5000002831220627
10
107.55000052154067
20
9.5000002831220627
10
107.55000052154067
20
16.80000028312206
10
100.00000052154067
20
16.80000028312206
0
LWPOLYLINE
5
122
100
AcDbEntity
8
0
100
AcDbPolyline
90
4
70
1
43
0.0
10
117.55000052154065
20
16.80000028312206
10
110.00000052154066
20
16.80000028312206
10
110.00000052154066
20
9.5000002831220627
10
117.55000052154065
20
9.5000002831220627
0
LWPOLYLINE
5
123
100
AcDbEntity
8
0
100
AcDbPolyline
90
4
70
1
43
0.0
10
127.55000052154067
20
16.80000028312206
10
120.00000052154067
20
16.80000028312206
10
120.00000052154067
20
9.5000002831220627
10
127.55000052154067
20
9.5000002831220627
0
LWPOLYLINE
5
124
100
AcDbEntity
8
0
100
AcDbPolyline
90
4
70
1
43
0.0
10
138.30026298748865
20
9.5000002831220627
10
135.00026298748864
20
9.5000002831220627
10
135.00026298748864
20
16.800000283122063
10
138.30026361784536
20
16.800000283122063
0
LWPOLYLINE
5
125
100
AcDbEntity
8
0
100
AcDbPolyline
90
4
70
1
43
0.0
10
140.00026298748864
20
9.5000002831220627
10
140.00026298748864
20
16.800000283122063
10
143.30026361784536
20
16.800000283122063
10
143.30026298748865
20
9.5000002831220627
0
LWPOLYLINE
5
126
100
AcDbEntity
8
0
100
AcDbPolyline
90
4
70
1
43
0.0
10
145.00026298748864
20
9.5000002831220627
10
145.00026298748864
20
16.800000283122063
10
148.30026361784536
20
16.800000283122063
10
148.30026298748865
20
9.5000002831220627
0
LWPOLYLINE
5
127
100
AcDbEntity
8
0
100
AcDbPolyline
90
4
70
1
43
0.0
10
150.00026298748864
20
9.5000002831220627
10
150.00026298748864
20
16.800000283122063
10
153.30026361784536
20
16.800000283122063
10
153.30026298748865
20
9.5000002831220627
0
LWPOLYLINE
5
128
100
AcDbEntity
8
0
100
AcDbPolyline
90
4
70
1
43
0.0
10
158.30026361784536
20
16.800000283122063
10
158.30026298748865
20
9.5000002831220627
10
155.00026298748864
20
9.5000002831220627
10
155.00026298748864
20
16.800000283122063
0
LWPOLYLINE
5
129
100
AcDbEntity
8
0
100
AcDbPolyline
90
4
70
1
43
0.0
10
163.30026361784536
20
16.800000283122063
10
163.30026298748862
20
9.5000002831220627
10
160.00026298748864
20
9.5000002831220627
10
160.00026298748864
20
16.800000283122063
0
ENDSEC
0
SECTION
2
OBJECTS
0
DICTIONARY
5
C
100
AcDbDictionary
3
ACAD_GROUP
350
D
3
ACAD_MLINESTYLE
350
17
0
DICTIONARY
5
D
100
AcDbDictionary
0
DICTIONARY
5
1A
330
C
100
AcDbDictionary
0
DICTIONARY
5
17
100
AcDbDictionary
0
ENDSEC
0
EOF
