0
SECTION
2
HEADER
9
$INSUNITS
70
4
9
$ACADVER
1
AC1014
9
$HANDSEED
5
FFFF
0
ENDSEC
0
SECTION
2
TABLES
0
TABLE
2
VPORT
5
8
100
AcDbSymbolTable
0
ENDTAB
0
TABLE
2
LTYPE
5
5
100
AcDbSymbolTable
0
LTYPE
5
14
100
AcDbSymbolTableRecord
100
AcDbLinetypeTableRecord
2
BYBLOCK
70
0
0
LTYPE
5
15
100
AcDbSymbolTableRecord
100
AcDbLinetypeTableRecord
2
BYLAYER
70
0
0
ENDTAB
0
TABLE
2
LAYER
5
2
100
AcDbSymbolTable
70
2
0
LAYER
5
50
100
AcDbSymbolTableRecord
100
AcDbLayerTableRecord
2
0
70
0
6
CONTINUOUS
0
ENDTAB
0
TABLE
2
STYLE
5
3
100
AcDbSymbolTable
70
1
0
STYLE
5
11
100
AcDbSymbolTableRecord
100
AcDbTextStyleTableRecord
2
STANDARD
70
0
0
ENDTAB
0
TABLE
2
VIEW
5
6
100
AcDbSymbolTable
70
0
0
ENDTAB
0
TABLE
2
UCS
5
7
100
AcDbSymbolTable
70
0
0
ENDTAB
0
TABLE
2
APPID
5
9
100
AcDbSymbolTable
70
2
0
APPID
5
12
100
AcDbSymbolTableRecord
100
AcDbRegAppTableRecord
2
ACAD
70
0
0
ENDTAB
0
TABLE
2
DIMSTYLE
5
A
100
AcDbSymbolTable
70
1
0
ENDTAB
0
TABLE
2
BLOCK_RECORD
5
1
100
AcDbSymbolTable
70
1
0
BLOCK_RECORD
5
1F
100
AcDbSymbolTableRecord
100
AcDbBlockTableRecord
2
*MODEL_SPACE
0
BLOCK_RECORD
5
1B
100
AcDbSymbolTableRecord
100
AcDbBlockTableRecord
2
*PAPER_SPACE
0
ENDTAB
0
ENDSEC
0
SECTION
2
BLOCKS
0
BLOCK
5
20
100
AcDbEntity
100
AcDbBlockBegin
2
*MODEL_SPACE
0
ENDBLK
5
21
100
AcDbEntity
100
AcDbBlockEnd
0
BLOCK
5
1C
100
AcDbEntity
100
AcDbBlockBegin
2
*PAPER_SPACE
0
ENDBLK
5
1D
100
AcDbEntity
100
AcDbBlockEnd
0
ENDSEC
0
SECTION
2
ENTITIES
0
LWPOLYLINE
5
100
100
AcDbEntity
8
0
100
AcDbPolyline
90
8
70
1
43
0.0
10
12.5
20
1.0000001341104552
10
21.299999999999997
20
1.0000001341104547
42
0.41421356237309503
10
21.800000000000001
20
1.5000001341104552
10
21.800000000000001
20
7.6000001341104548
42
0.41421356237309437
10
21.299999999999997
20
8.1000001341104539
10
12.500000000000002
20
8.1000001341104539
42
0.41421356237309631
10
12.000000000000002
20
7.6000001341104557
10
12.000000000000002
20
1.5000001341104547
42
0.41421356237309503
0
LWPOLYLINE
5
101
100
AcDbEntity
8
0
100
AcDbPolyline
90
4
70
1
43
0.0
10
12.000000029802322
20
9.5000002831220627
10
21.200000029802322
20
9.5000002831220627
10
21.200000029802322
20
16.700000283122062
10
12.000000029802322
20
16.700000283122062
0
LWPOLYLINE
5
102
100
AcDbEntity
8
0
100
AcDbPolyline
90
4
70
1
43
0.0
10
10.200000029802322
20
9.5000002831220627
10
10.200000029802322
20
16.700000283122062
10
1.0000000298023215
20
16.700000283122062
10
1.0000000298023215
20
9.5000002831220627
0
LWPOLYLINE
5
103
100
AcDbEntity
8
0
100
AcDbPolyline
90
8
70
1
43
0.0
10
10.800000000000001
20
19.500000134110454
42
-0.41421356237309503
10
10.300000000000001
20
19.000000134110454
10
1.5000000000000002
20
19.000000134110454
42
-0.41421356237309503
10
1.0000000000000009
20
19.500000134110454
10
1.000000000000002
20
25.600000134110456
42
-0.4142135623730957
10
1.5000000000000013
20
26.100000134110456
10
10.300000000000001
20
26.100000134110452
42
-0.41421356237309243
10
10.800000000000001
20
25.600000134110456
0
LWPOLYLINE
5
104
100
AcDbEntity
8
0
100
AcDbPolyline
90
8
70
1
43
0.0
10
10.800000000000001
20
1.5000001341104552
42
-0.41421356237309503
10
10.300000000000001
20
1.0000001341104547
10
1.5000000000000002
20
1.0000001341104552
42
-0.41421356237309503
10
1.0000000000000009
20
1.5000001341104552
10
1.000000000000002
20
7.6000001341104557
42
-0.4142135623730957
10
1.5000000000000013
20
8.1000001341104539
10
10.299999999999997
20
8.1000001341104539
42
-0.41421356237309437
10
10.800000000000001
20
7.6000001341104548
0
LWPOLYLINE
5
105
100
AcDbEntity
8
0
100
AcDbPolyline
90
8
70
1
43
0.0
10
12.5
20
19.000000134110458
42
-0.41421356237309503
10
12.000000000000002
20
19.500000134110454
10
12.000000000000002
20
25.600000134110452
42
-0.41421356237309631
10
12.500000000000002
20
26.100000134110456
10
21.299999999999997
20
26.100000134110456
42
-0.41421356237309243
10
21.800000000000001
20
25.600000134110456
10
21.799999999999997
20
19.500000134110454
42
-0.41421356237309503
10
21.299999999999997
20
19.000000134110454
0
LWPOLYLINE
5
106
100
AcDbEntity
8
0
100
AcDbPolyline
90
8
70
1
43
0.0
10
23.000000000000004
20
7.6000001341104557
10
23.000000000000004
20
1.5000001341104547
42
0.41421356237309503
10
23.5
20
1.0000001341104552
10
32.300000000000004
20
1.0000001341104547
42
0.41421356237309503
10
32.800000000000004
20
1.5000001341104552
10
32.800000000000004
20
7.6000001341104548
42
0.41421356237309437
10
32.300000000000004
20
8.1000001341104539
10
23.500000000000007
20
8.1000001341104539
42
0.41421356237309764
0
LWPOLYLINE
5
107
100
AcDbEntity
8
0
100
AcDbPolyline
90
4
70
1
43
0.0
10
23.000000029802322
20
16.700000283122062
10
23.000000029802322
20
9.5000002831220627
10
32.200000029802325
20
9.5000002831220627
10
32.200000029802325
20
16.700000283122062
0
LWPOLYLINE
5
108
100
AcDbEntity
8
0
100
AcDbPolyline
90
8
70
1
43
0.0
10
12.5
20
37.000000134110458
42
-0.41421356237309503
10
12.000000000000002
20
37.500000134110458
10
12.000000000000002
20
43.600000134110459
42
-0.41421356237309631
10
12.500000000000002
20
44.100000134110459
10
21.299999999999997
20
44.100000134110466
42
-0.41421356237309503
10
21.800000000000001
20
43.600000134110459
10
21.799999999999997
20
37.500000134110458
42
-0.41421356237309503
10
21.299999999999997
20
37.000000134110458
0
LWPOLYLINE
5
109
100
AcDbEntity
8
0
100
AcDbPolyline
90
8
70
1
43
0.0
10
1.5000000000000002
20
37.000000134110458
42
-0.41421356237309503
10
1.0000000000000009
20
37.500000134110458
10
1.000000000000002
20
43.600000134110459
42
-0.4142135623730957
10
1.5000000000000013
20
44.100000134110459
10
10.300000000000001
20
44.100000134110459
42
-0.41421356237309503
10
10.800000000000001
20
43.600000134110459
10
10.799999999999999
20
37.500000134110458
42
-0.41421356237309503
10
10.300000000000001
20
37.000000134110458
0
LWPOLYLINE
5
110
100
AcDbEntity
8
0
100
AcDbPolyline
90
8
70
1
43
0.0
10
34.5
20
1.0000001341104565
42
-0.41421356237309503
10
34
20
1.5000001341104552
10
34
20
7.6000001341104557
42
-0.41421356237309503
10
34.5
20
8.1000001341104539
10
43.299999999999997
20
8.100000134110461
42
-0.41421356237309437
10
43.800000000000011
20
7.6000001341104548
10
43.799999999999997
20
1.5000001341104552
42
-0.41421356237309503
10
43.299999999999997
20
1.0000001341104547
0
LWPOLYLINE
5
111
100
AcDbEntity
8
0
100
AcDbPolyline
90
8
70
1
43
0.0
10
34.5
20
19.000000134110458
42
-0.41421356237309503
10
34
20
19.500000134110454
10
34
20
25.600000134110456
42
-0.41421356237309503
10
34.5
20
26.100000134110456
10
43.299999999999997
20
26.100000134110459
42
-0.41421356237309243
10
43.800000000000011
20
25.600000134110456
10
43.799999999999997
20
19.500000134110454
42
-0.41421356237309503
10
43.299999999999997
20
19.000000134110454
0
LWPOLYLINE
5
112
100
AcDbEntity
8
0
100
AcDbPolyline
90
4
70
1
43
0.0
10
34.000000029802322
20
16.700000283122062
10
34.000000029802322
20
9.5000002831220627
10
43.200000029802325
20
9.5000002831220627
10
43.200000029802325
20
16.700000283122062
0
LWPOLYLINE
5
113
100
AcDbEntity
8
0
100
AcDbPolyline
90
8
70
1
43
0.0
10
23.000000000000004
20
25.600000134110456
10
23.000000000000004
20
19.500000134110454
42
0.41421356237309503
10
23.5
20
19.000000134110454
10
32.300000000000004
20
19.000000134110454
42
0.41421356237309503
10
32.800000000000004
20
19.500000134110454
10
32.800000000000004
20
25.600000134110456
42
0.41421356237309243
10
32.300000000000004
20
26.100000134110456
10
23.500000000000007
20
26.100000134110456
42
0.41421356237309764
0
LWPOLYLINE
5
114
100
AcDbEntity
8
0
100
AcDbPolyline
90
8
70
1
43
0.0
10
21.79999999999999
20
91.500000134110465
42
-0.41421356237309503
10
21.299999999999997
20
91.000000134110479
10
12.5
20
91.000000134110479
42
-0.41421356237309503
10
12.000000000000002
20
91.500000134110465
10
12.000000000000011
20
97.600000134110473
42
-0.41421356237309631
10
12.500000000000002
20
98.100000134110473
10
21.299999999999997
20
98.100000134110488
42
-0.41421356237309503
10
21.800000000000001
20
97.600000134110473
0
LWPOLYLINE
5
115
100
AcDbEntity
8
0
100
AcDbPolyline
90
8
70
1
43
0.0
10
54.800000000000004
20
37.500000134110458
42
-0.41421356237309503
10
54.300000000000004
20
37.000000134110458
10
45.500000000000007
20
37.000000134110451
42
-0.41421356237309503
10
45
20
37.500000134110458
10
45.000000000000007
20
43.600000134110459
42
-0.41421356237309503
10
45.500000000000007
20
44.100000134110459
10
54.300000000000004
20
44.100000134110459
42
-0.41421356237309503
10
54.800000000000004
20
43.600000134110459
0
LWPOLYLINE
5
116
100
AcDbEntity
8
0
100
AcDbPolyline
90
4
70
1
43
0.0
10
96.000000029802351
20
37.00000028312207
10
107.50000002980232
20
37.00000028312207
10
107.50000002980232
20
44.200000283122066
10
96.000000029802351
20
44.200000283122066
0
LWPOLYLINE
5
117
100
AcDbEntity
8
0
100
AcDbPolyline
90
4
70
1
43
0.0
10
107.55000052154067
20
34.80000028312206
10
100.00000052154067
20
34.80000028312206
10
100.00000052154067
20
27.500000283122063
10
107.55000052154067
20
27.500000283122063
0
LWPOLYLINE
5
118
100
AcDbEntity
8
0
100
AcDbPolyline
90
4
70
1
43
0.0
10
97.550000521540653
20
52.80000028312206
10
90.000000521540656
20
52.80000028312206
10
90.000000521540656
20
45.500000283122063
10
97.550000521540653
20
45.500000283122063
0
LWPOLYLINE
5
119
100
AcDbEntity
8
0
100
AcDbPolyline
90
4
70
1
43
0.0
10
100.00000052154067
20
45.500000283122063
10
107.55000052154067
20
45.500000283122063
10
107.55000052154067
20
52.80000028312206
10
100.00000052154067
20
52.80000028312206
0
LWPOLYLINE
5
120
100
AcDbEntity
8
0
100
AcDbPolyline
90
4
70
1
43
0.0
10
109.00000002980235
20
37.00000028312207
10
120.50000002980234
20
37.00000028312207
10
120.50000002980234
20
44.200000283122066
10
109.00000002980235
20
44.200000283122066
0
LWPOLYLINE
5
121
100
AcDbEntity
8
0
100
AcDbPolyline
90
4
70
1
43
0.0
10
65.200000029802325
20
27.500000283122063
10
65.200000029802325
20
34.700000283122066
10
56.000000029802322
20
34.700000283122066
10
56.000000029802322
20
27.500000283122063
0
LWPOLYLINE
5
122
100
AcDbEntity
8
0
100
AcDbPolyline
90
4
70
1
43
0.0
10
70.000000521540656
20
34.80000028312206
10
70.000000521540656
20
27.500000283122063
10
77.550000521540639
20
27.500000283122063
10
77.550000521540639
20
34.80000028312206
0
LWPOLYLINE
5
123
100
AcDbEntity
8
0
100
AcDbPolyline
90
8
70
1
43
0.0
10
56.000000000000007
20
43.600000134110459
10
56.000000000000007
20
37.500000134110458
42
0.41421356237309503
10
56.5
20
37.000000134110458
10
65.299999999999997
20
37.000000134110458
42
0.41421356237309503
10
65.800000000000011
20
37.500000134110458
10
65.800000000000011
20
43.600000134110459
42
0.41421356237309503
10
65.299999999999997
20
44.100000134110459
10
56.5
20
44.100000134110459
42
0.41421356237309503
0
LWPOLYLINE
5
124
100
AcDbEntity
8
0
100
AcDbPolyline
90
8
70
1
43
0.0
10
65.299999999999997
20
26.100000134110459
42
-0.41421356237309243
10
65.800000000000011
20
25.600000134110456
10
65.799999999999997
20
19.500000134110454
42
-0.41421356237309503
10
65.299999999999997
20
19.000000134110454
10
56.5
20
19.000000134110458
42
-0.41421356237309503
10
56.000000000000007
20
19.500000134110454
10
56.000000000000007
20
25.600000134110456
42
-0.41421356237309503
10
56.5
20
26.100000134110456
0
LWPOLYLINE
5
125
100
AcDbEntity
8
0
100
AcDbPolyline
90
8
70
1
43
0.0
10
54.299999999999997
20
26.100000134110452
42
-0.41421356237309243
10
54.800000000000004
20
25.600000134110456
10
54.800000000000004
20
19.500000134110454
42
-0.41421356237309503
10
54.300000000000004
20
19.000000134110454
10
45.500000000000007
20
19.000000134110447
42
-0.41421356237309503
10
45
20
19.500000134110454
10
45.000000000000007
20
25.600000134110456
42
-0.41421356237309503
10
45.500000000000007
20
26.100000134110456
0
LWPOLYLINE
5
126
100
AcDbEntity
8
0
100
AcDbPolyline
90
4
70
1
43
0.0
10
23.000000029802322
20
99.500000283122063
10
32.200000029802325
20
99.500000283122063
10
32.200000029802325
20
106.70000028312209
10
23.000000029802322
20
106.70000028312209
0
LWPOLYLINE
5
127
100
AcDbEntity
8
0
100
AcDbPolyline
90
4
70
1
43
0.0
10
10.200000029802322
20
88.70000028312208
10
1.0000000298023215
20
88.70000028312208
10
1.0000000298023215
20
81.500000283122063
10
10.200000029802322
20
81.500000283122063
0
LWPOLYLINE
5
128
100
AcDbEntity
8
0
100
AcDbPolyline
90
4
70
1
43
0.0
10
32.200000029802325
20
81.500000283122063
10
32.200000029802325
20
88.70000028312208
10
23.000000029802322
20
88.70000028312208
10
23.000000029802322
20
81.500000283122063
0
LWPOLYLINE
5
129
100
AcDbEntity
8
0
100
AcDbPolyline
90
8
70
1
43
0.0
10
32.799999999999997
20
91.500000134110465
42
-0.41421356237309503
10
32.300000000000004
20
91.000000134110479
10
23.5
20
91.000000134110479
42
-0.41421356237309503
10
23.000000000000004
20
91.500000134110465
10
23.000000000000011
20
97.600000134110473
42
-0.41421356237309764
10
23.500000000000007
20
98.100000134110473
10
32.300000000000004
20
98.100000134110488
42
-0.41421356237309503
10
32.800000000000004
20
97.600000134110473
0
LWPOLYLINE
5
130
100
AcDbEntity
8
0
100
AcDbPolyline
90
4
70
1
43
0.0
10
21.200000029802322
20
88.70000028312208
10
12.000000029802322
20
88.70000028312208
10
12.000000029802322
20
81.500000283122063
10
21.200000029802322
20
81.500000283122063
0
LWPOLYLINE
5
131
100
AcDbEntity
8
0
100
AcDbPolyline
90
4
70
1
43
0.0
10
109.00000002980235
20
55.00000028312207
10
120.50000002980234
20
55.00000028312207
10
120.50000002980234
20
62.200000283122066
10
109.00000002980235
20
62.200000283122066
0
LWPOLYLINE
5
132
100
AcDbEntity
8
0
100
AcDbPolyline
90
8
70
1
43
0.0
10
34.5
20
91.000000134110479
42
-0.41421356237309503
10
34
20
91.500000134110465
10
34.000000000000014
20
97.600000134110473
42
-0.41421356237309503
10
34.5
20
98.100000134110473
10
43.299999999999997
20
98.100000134110488
42
-0.41421356237309503
10
43.800000000000011
20
97.600000134110473
10
43.79999999999999
20
91.500000134110465
42
-0.41421356237309503
10
43.299999999999997
20
91.000000134110479
0
LWPOLYLINE
5
133
100
AcDbEntity
8
0
100
AcDbPolyline
90
4
70
1
43
0.0
10
56.000000029802322
20
45.500000283122063
10
65.200000029802325
20
45.500000283122063
10
65.200000029802325
20
52.700000283122073
10
56.000000029802322
20
52.700000283122073
0
LWPOLYLINE
5
134
100
AcDbEntity
8
0
100
AcDbPolyline
90
4
70
1
43
0.0
10
117.55000052154065
20
34.80000028312206
10
110.00000052154066
20
34.80000028312206
10
110.00000052154066
20
27.500000283122063
10
117.55000052154065
20
27.500000283122063
0
LWPOLYLINE
5
135
100
AcDbEntity
8
0
100
AcDbPolyline
90
4
70
1
43
0.0
10
70.000000521540656
20
52.80000028312206
10
70.000000521540656
20
45.500000283122063
10
77.550000521540639
20
45.500000283122063
10
77.550000521540639
20
52.80000028312206
0
LWPOLYLINE
5
136
100
AcDbEntity
8
0
100
AcDbPolyline
90
4
70
1
43
0.0
10
96.000000029802351
20
55.00000028312207
10
107.50000002980232
20
55.00000028312207
10
107.50000002980232
20
62.200000283122066
10
96.000000029802351
20
62.200000283122066
0
LWPOLYLINE
5
137
100
AcDbEntity
8
0
100
AcDbPolyline
90
4
70
1
43
0.0
10
110.00000052154066
20
52.80000028312206
10
110.00000052154066
20
45.500000283122063
10
117.55000052154065
20
45.500000283122063
10
117.55000052154065
20
52.80000028312206
0
LWPOLYLINE
5
138
100
AcDbEntity
8
0
100
AcDbPolyline
90
4
70
1
43
0.0
10
97.550000521540653
20
27.500000283122063
10
97.550000521540653
20
34.80000028312206
10
90.000000521540656
20
34.80000028312206
10
90.000000521540656
20
27.500000283122063
0
LWPOLYLINE
5
139
100
AcDbEntity
8
0
100
AcDbPolyline
90
8
70
1
43
0.0
10
34
20
79.600000134110459
42
-0.41421356237309503
10
34.5
20
80.100000134110459
10
43.299999999999997
20
80.100000134110473
42
-0.41421356237309503
10
43.800000000000011
20
79.600000134110459
10
43.799999999999997
20
73.500000134110465
42
-0.41421356237309503
10
43.299999999999997
20
73.000000134110465
10
34.5
20
73.000000134110465
42
-0.41421356237309503
10
34
20
73.500000134110465
0
LWPOLYLINE
5
140
100
AcDbEntity
8
0
100
AcDbPolyline
90
4
70
1
43
0.0
10
127.55000052154067
20
81.500000283122063
10
127.55000052154067
20
88.800000283122074
10
120.00000052154067
20
88.800000283122074
10
120.00000052154067
20
81.500000283122063
0
LWPOLYLINE
5
141
100
AcDbEntity
8
0
100
AcDbPolyline
90
4
70
1
43
0.0
10
133.50000002980232
20
91.000000283122091
10
133.50000002980232
20
98.20000028312208
10
122.00000002980234
20
98.20000028312208
10
122.00000002980234
20
91.000000283122091
0
LWPOLYLINE
5
142
100
AcDbEntity
8
0
100
AcDbPolyline
90
4
70
1
43
0.0
10
143.30026361784536
20
88.800000283122074
10
143.30026298748865
20
81.500000283122063
10
140.00026298748864
20
81.500000283122063
10
140.00026298748864
20
88.800000283122074
0
LWPOLYLINE
5
143
100
AcDbEntity
8
0
100
AcDbPolyline
90
4
70
1
43
0.0
10
127.55000052154067
20
106.80000028312207
10
120.00000052154067
20
106.80000028312207
10
120.00000052154067
20
99.500000283122063
10
127.55000052154067
20
99.500000283122063
0
LWPOLYLINE
5
144
100
AcDbEntity
8
0
100
AcDbPolyline
90
4
70
1
43
0.0
10
135.00026298748864
20
88.800000283122074
10
138.30026361784536
20
88.800000283122074
10
138.30026298748865
20
81.500000283122063
10
135.00026298748864
20
81.500000283122063
0
LWPOLYLINE
5
145
100
AcDbEntity
8
0
100
AcDbPolyline
90
4
70
1
43
0.0
10
135.00000002980235
20
91.000000283122091
10
146.50000002980232
20
91.000000283122091
10
146.50000002980232
20
98.20000028312208
10
135.00000002980235
20
98.20000028312208
0
LWPOLYLINE
5
146
100
AcDbEntity
8
0
100
AcDbPolyline
90
4
70
1
43
0.0
10
135.00026298748864
20
106.80000028312207
10
138.30026361784536
20
106.80000028312207
10
138.30026298748865
20
99.500000283122063
10
135.00026298748864
20
99.500000283122063
0
LWPOLYLINE
5
147
100
AcDbEntity
8
0
100
AcDbPolyline
90
4
70
1
43
0.0
10
120.50000002980234
20
91.000000283122091
10
120.50000002980234
20
98.20000028312208
10
109.00000002980235
20
98.20000028312208
10
109.00000002980235
20
91.000000283122091
0
LWPOLYLINE
5
148
100
AcDbEntity
8
0
100
AcDbPolyline
90
4
70
1
43
0.0
10
140.00026298748864
20
99.500000283122063
10
140.00026298748864
20
106.80000028312207
10
143.30026361784536
20
106.80000028312207
10
143.30026298748865
20
99.500000283122063
0
LWPOLYLINE
5
149
100
AcDbEntity
8
0
100
AcDbPolyline
90
4
70
1
43
0.0
10
1.0000000298023215
20
99.500000283122063
10
10.200000029802322
20
99.500000283122063
10
10.200000029802322
20
106.70000028312209
10
1.0000000298023215
20
106.70000028312209
0
LWPOLYLINE
5
150
100
AcDbEntity
8
0
100
AcDbPolyline
90
4
70
1
43
0.0
10
54.200000029802318
20
45.500000283122063
10
54.200000029802318
20
52.700000283122073
10
45.000000029802322
20
52.700000283122073
10
45.000000029802322
20
45.500000283122063
0
LWPOLYLINE
5
151
100
AcDbEntity
8
0
100
AcDbPolyline
90
8
70
1
43
0.0
10
10.300000000000001
20
80.100000134110459
42
-0.41421356237309503
10
10.800000000000001
20
79.600000134110459
10
10.799999999999999
20
73.500000134110465
42
-0.41421356237309503
10
10.300000000000001
20
73.000000134110465
10
1.5000000000000002
20
73.000000134110465
42
-0.41421356237309503
10
1.0000000000000009
20
73.500000134110465
10
1.000000000000002
20
79.600000134110459
42
-0.4142135623730957
10
1.5000000000000013
20
80.100000134110459
0
LWPOLYLINE
5
152
100
AcDbEntity
8
0
100
AcDbPolyline
90
4
70
1
43
0.0
10
87.550000521540653
20
52.80000028312206
10
80.000000521540656
20
52.80000028312206
10
80.000000521540656
20
45.500000283122063
10
87.550000521540653
20
45.500000283122063
0
LWPOLYLINE
5
153
100
AcDbEntity
8
0
100
AcDbPolyline
90
4
70
1
43
0.0
10
83.000000029802337
20
37.00000028312207
10
94.500000029802337
20
37.00000028312207
10
94.500000029802337
20
44.200000283122066
10
83.000000029802337
20
44.200000283122066
0
LWPOLYLINE
5
154
100
AcDbEntity
8
0
100
AcDbPolyline
90
8
70
1
43
0.0
10
1.5000000000000002
20
91.000000134110465
42
-0.41421356237309503
10
1.0000000000000009
20
91.500000134110465
10
1.0000000000000109
20
97.600000134110473
42
-0.4142135623730957
10
1.5000000000000013
20
98.100000134110473
10
10.300000000000001
20
98.100000134110488
42
-0.41421356237309503
10
10.800000000000001
20
97.600000134110473
10
10.79999999999999
20
91.500000134110465
42
-0.41421356237309503
10
10.300000000000001
20
91.000000134110479
0
LWPOLYLINE
5
155
100
AcDbEntity
8
0
100
AcDbPolyline
90
4
70
1
43
0.0
10
70.000000029802322
20
55.00000028312207
10
81.500000029802337
20
55.00000028312207
10
81.500000029802337
20
62.200000283122066
10
70.000000029802322
20
62.200000283122066
0
LWPOLYLINE
5
156
100
AcDbEntity
8
0
100
AcDbPolyline
90
4
70
1
43
0.0
10
81.500000029802337
20
44.200000283122066
10
70.000000029802322
20
44.200000283122066
10
70.000000029802322
20
37.00000028312207
10
81.500000029802337
20
37.00000028312207
0
LWPOLYLINE
5
157
100
AcDbEntity
8
0
100
AcDbPolyline
90
8
70
1
43
0.0
10
21.299999999999997
20
80.100000134110459
10
12.500000000000002
20
80.100000134110459
42
0.41421356237309631
10
12.000000000000002
20
79.600000134110459
10
12.000000000000002
20
73.500000134110465
42
0.41421356237309503
10
12.5
20
73.000000134110465
10
21.299999999999997
20
73.000000134110465
42
0.41421356237309503
10
21.800000000000001
20
73.500000134110465
10
21.800000000000001
20
79.600000134110459
42
0.41421356237309503
0
LWPOLYLINE
5
158
100
AcDbEntity
8
0
100
AcDbPolyline
90
4
70
1
43
0.0
10
87.550000521540653
20
27.500000283122063
10
87.550000521540653
20
34.80000028312206
10
80.000000521540656
20
34.80000028312206
10
80.000000521540656
20
27.500000283122063
0
LWPOLYLINE
5
159
100
AcDbEntity
8
0
100
AcDbPolyline
90
4
70
1
43
0.0
10
45.000000029802322
20
34.700000283122066
10
45.000000029802322
20
27.500000283122063
10
54.200000029802318
20
27.500000283122063
10
54.200000029802318
20
34.700000283122066
0
LWPOLYLINE
5
160
100
AcDbEntity
8
0
100
AcDbPolyline
90
8
70
1
43
0.0
10
43.800000000000011
20
37.500000134110458
10
43.800000000000011
20
43.600000134110459
42
0.41421356237309503
10
43.299999999999997
20
44.100000134110459
10
34.5
20
44.100000134110459
42
0.41421356237309503
10
34
20
43.600000134110459
10
34
20
37.500000134110458
42
0.41421356237309503
10
34.5
20
37.000000134110458
10
43.299999999999997
20
37.000000134110458
42
0.41421356237309503
0
LWPOLYLINE
5
161
100
AcDbEntity
8
0
100
AcDbPolyline
90
4
70
1
43
0.0
10
43.200000029802325
20
34.700000283122066
10
34.000000029802322
20
34.700000283122066
10
34.000000029802322
20
27.500000283122063
10
43.200000029802325
20
27.500000283122063
0
LWPOLYLINE
5
162
100
AcDbEntity
8
0
100
AcDbPolyline
90
4
70
1
43
0.0
10
12.000000029802322
20
106.70000028312209
10
12.000000029802322
20
99.500000283122063
10
21.200000029802322
20
99.500000283122063
10
21.200000029802322
20
106.70000028312209
0
LWPOLYLINE
5
163
100
AcDbEntity
8
0
100
AcDbPolyline
90
4
70
1
43
0.0
10
83.000000029802337
20
55.00000028312207
10
94.500000029802337
20
55.00000028312207
10
94.500000029802337
20
62.200000283122066
10
83.000000029802337
20
62.200000283122066
0
LWPOLYLINE
5
164
100
AcDbEntity
8
0
100
AcDbPolyline
90
4
70
1
43
0.0
10
90.000000521540656
20
81.500000283122063
10
97.550000521540653
20
81.500000283122063
10
97.550000521540653
20
88.800000283122074
10
90.000000521540656
20
88.800000283122074
0
LWPOLYLINE
5
165
100
AcDbEntity
8
0
100
AcDbPolyline
90
8
70
1
43
0.0
10
65.799999999999997
20
73.500000134110465
42
-0.41421356237309503
10
65.299999999999997
20
73.000000134110465
10
56.5
20
73.000000134110465
42
-0.41421356237309503
10
56.000000000000007
20
73.500000134110465
10
56.000000000000007
20
79.600000134110459
42
-0.41421356237309503
10
56.5
20
80.100000134110459
10
65.299999999999997
20
80.100000134110473
42
-0.41421356237309503
10
65.800000000000011
20
79.600000134110459
0
LWPOLYLINE
5
166
100
AcDbEntity
8
0
100
AcDbPolyline
90
4
70
1
43
0.0
10
163.30026361784536
20
16.800000283122063
10
163.30026298748862
20
9.5000002831220627
10
160.00026298748864
20
9.5000002831220627
10
160.00026298748864
20
16.800000283122063
0
LWPOLYLINE
5
167
100
AcDbEntity
8
0
100
AcDbPolyline
90
4
70
1
43
0.0
10
100.00000052154067
20
81.500000283122063
10
107.55000052154067
20
81.500000283122063
10
107.55000052154067
20
88.800000283122074
10
100.00000052154067
20
88.800000283122074
0
LWPOLYLINE
5
168
100
AcDbEntity
8
0
100
AcDbPolyline
90
4
70
1
43
0.0
10
94.500000029802337
20
73.000000283122077
10
94.500000029802337
20
80.20000028312208
10
83.000000029802337
20
80.20000028312208
10
83.000000029802337
20
73.000000283122077
0
LWPOLYLINE
5
169
100
AcDbEntity
8
0
100
AcDbPolyline
90
4
70
1
43
0.0
10
140.00026298748864
20
16.800000283122063
10
143.30026361784536
20
16.800000283122063
10
143.30026298748865
20
9.5000002831220627
10
140.00026298748864
20
9.5000002831220627
0
LWPOLYLINE
5
170
100
AcDbEntity
8
0
100
AcDbPolyline
90
8
70
1
43
0.0
10
65.299999999999997
20
62.100000134110466
42
-0.41421356237309503
10
65.800000000000011
20
61.600000134110459
10
65.799999999999997
20
55.500000134110451
42
-0.41421356237309503
10
65.299999999999997
20
55.000000134110458
10
56.5
20
55.000000134110458
42
-0.41421356237309503
10
56.000000000000007
20
55.500000134110451
10
56.000000000000007
20
61.600000134110459
42
-0.41421356237309503
10
56.5
20
62.100000134110459
0
LWPOLYLINE
5
171
100
AcDbEntity
8
0
100
AcDbPolyline
90
4
70
1
43
0.0
10
148.30026298748865
20
9.5000002831220627
10
145.00026298748864
20
9.5000002831220627
10
145.00026298748864
20
16.800000283122063
10
148.30026361784536
20
16.800000283122063
0
LWPOLYLINE
5
172
100
AcDbEntity
8
0
100
AcDbPolyline
90
4
70
1
43
0.0
10
146.50000002980232
20
19.000000283122066
10
146.50000002980232
20
26.200000283122066
10
135.00000002980235
20
26.200000283122066
10
135.00000002980235
20
19.000000283122066
0
LWPOLYLINE
5
173
100
AcDbEntity
8
0
100
AcDbPolyline
90
4
70
1
43
0.0
10
100.00000052154067
20
63.500000283122063
10
107.55000052154067
20
63.500000283122063
10
107.55000052154067
20
70.80000028312206
10
100.00000052154067
20
70.80000028312206
0
LWPOLYLINE
5
174
100
AcDbEntity
8
0
100
AcDbPolyline
90
4
70
1
43
0.0
10
153.30026298748865
20
27.500000283122063
10
150.00026298748864
20
27.500000283122063
10
150.00026298748864
20
34.80000028312206
10
153.30026361784536
20
34.80000028312206
0
LWPOLYLINE
5
175
100
AcDbEntity
8
0
100
AcDbPolyline
90
8
70
1
43
0.0
10
54.800000000000004
20
55.500000134110451
42
-0.41421356237309503
10
54.300000000000004
20
55.000000134110458
10
45.500000000000007
20
55.000000134110451
42
-0.41421356237309503
10
45
20
55.500000134110451
10
45.000000000000007
20
61.600000134110459
42
-0.41421356237309503
10
45.500000000000007
20
62.100000134110459
10
54.300000000000004
20
62.100000134110459
42
-0.41421356237309503
10
54.800000000000004
20
61.600000134110459
0
LWPOLYLINE
5
176
100
AcDbEntity
8
0
100
AcDbPolyline
90
4
70
1
43
0.0
10
146.50000002980232
20
1.0000002831220645
10
146.50000002980232
20
8.2000002831220637
10
135.00000002980235
20
8.2000002831220637
10
135.00000002980235
20
1.0000002831220645
0
LWPOLYLINE
5
177
100
AcDbEntity
8
0
100
AcDbPolyline
90
4
70
1
43
0.0
10
150.00026298748864
20
16.800000283122063
10
153.30026361784536
20
16.800000283122063
10
153.30026298748865
20
9.5000002831220627
10
150.00026298748864
20
9.5000002831220627
0
LWPOLYLINE
5
178
100
AcDbEntity
8
0
100
AcDbPolyline
90
4
70
1
43
0.0
10
96.000000029802351
20
80.20000028312208
10
96.000000029802351
20
73.000000283122077
10
107.50000002980232
20
73.000000283122077
10
107.50000002980232
20
80.20000028312208
0
LWPOLYLINE
5
179
100
AcDbEntity
8
0
100
AcDbPolyline
90
4
70
1
43
0.0
10
110.00000052154066
20
70.80000028312206
10
110.00000052154066
20
63.500000283122063
10
117.55000052154065
20
63.500000283122063
10
117.55000052154065
20
70.80000028312206
0
LWPOLYLINE
5
180
100
AcDbEntity
8
0
100
AcDbPolyline
90
4
70
1
43
0.0
10
155.00026298748864
20
9.5000002831220627
10
155.00026298748864
20
16.800000283122063
10
158.30026361784536
20
16.800000283122063
10
158.30026298748865
20
9.5000002831220627
0
LWPOLYLINE
5
181
100
AcDbEntity
8
0
100
AcDbPolyline
90
4
70
1
43
0.0
10
163.30026298748862
20
27.500000283122063
10
160.00026298748864
20
27.500000283122063
10
160.00026298748864
20
34.80000028312206
10
163.30026361784536
20
34.80000028312206
0
LWPOLYLINE
5
182
100
AcDbEntity
8
0
100
AcDbPolyline
90
4
70
1
43
0.0
10
109.00000002980235
20
73.000000283122077
10
120.50000002980234
20
73.000000283122077
10
120.50000002980234
20
80.20000028312208
10
109.00000002980235
20
80.20000028312208
0
LWPOLYLINE
5
183
100
AcDbEntity
8
0
100
AcDbPolyline
90
4
70
1
43
0.0
10
148.30026361784536
20
88.800000283122074
10
148.30026298748865
20
81.500000283122063
10
145.00026298748864
20
81.500000283122063
10
145.00026298748864
20
88.800000283122074
0
LWPOLYLINE
5
184
100
AcDbEntity
8
0
100
AcDbPolyline
90
4
70
1
43
0.0
10
148.30026361784536
20
106.80000028312207
10
148.30026298748865
20
99.500000283122063
10
145.00026298748864
20
99.500000283122063
10
145.00026298748864
20
106.80000028312207
0
LWPOLYLINE
5
185
100
AcDbEntity
8
0
100
AcDbPolyline
90
4
70
1
43
0.0
10
153.30026298748865
20
99.500000283122063
10
150.00026298748864
20
99.500000283122063
10
150.00026298748864
20
106.80000028312207
10
153.30026361784536
20
106.80000028312207
0
LWPOLYLINE
5
186
100
AcDbEntity
8
0
100
AcDbPolyline
90
4
70
1
43
0.0
10
150.00026298748864
20
88.800000283122074
10
153.30026361784536
20
88.800000283122074
10
153.30026298748865
20
81.500000283122063
10
150.00026298748864
20
81.500000283122063
0
LWPOLYLINE
5
187
100
AcDbEntity
8
0
100
AcDbPolyline
90
4
70
1
43
0.0
10
158.30026298748865
20
99.500000283122063
10
155.00026298748864
20
99.500000283122063
10
155.00026298748864
20
106.80000028312207
10
158.30026361784536
20
106.80000028312207
0
LWPOLYLINE
5
188
100
AcDbEntity
8
0
100
AcDbPolyline
90
4
70
1
43
0.0
10
160.00026298748864
20
99.500000283122063
10
160.00026298748864
20
106.80000028312207
10
163.30026361784536
20
106.80000028312207
10
163.30026298748862
20
99.500000283122063
0
LWPOLYLINE
5
189
100
AcDbEntity
8
0
100
AcDbPolyline
90
4
70
1
43
0.0
10
163.30026361784536
20
88.800000283122074
10
163.30026298748862
20
81.500000283122063
10
160.00026298748864
20
81.500000283122063
10
160.00026298748864
20
88.800000283122074
0
LWPOLYLINE
5
190
100
AcDbEntity
8
0
100
AcDbPolyline
90
4
70
1
43
0.0
10
155.00026298748864
20
88.800000283122074
10
158.30026361784536
20
88.800000283122074
10
158.30026298748865
20
81.500000283122063
10
155.00026298748864
20
81.500000283122063
0
LWPOLYLINE
5
191
100
AcDbEntity
8
0
100
AcDbPolyline
90
4
70
1
43
0.0
10
70.000000521540656
20
81.500000283122063
10
77.550000521540639
20
81.500000283122063
10
77.550000521540639
20
88.800000283122074
10
70.000000521540656
20
88.800000283122074
0
LWPOLYLINE
5
192
100
AcDbEntity
8
0
100
AcDbPolyline
90
4
70
1
43
0.0
10
34.000000029802322
20
88.70000028312208
10
34.000000029802322
20
81.500000283122063
10
43.200000029802325
20
81.500000283122063
10
43.200000029802325
20
88.70000028312208
0
LWPOLYLINE
5
193
100
AcDbEntity
8
0
100
AcDbPolyline
90
8
70
1
43
0.0
10
32.300000000000004
20
80.100000134110459
42
-0.41421356237309503
10
32.800000000000004
20
79.600000134110459
10
32.800000000000004
20
73.500000134110465
42
-0.41421356237309503
10
32.300000000000004
20
73.000000134110465
10
23.5
20
73.000000134110465
42
-0.41421356237309503
10
23.000000000000004
20
73.500000134110465
10
23.000000000000004
20
79.600000134110459
42
-0.41421356237309764
10
23.500000000000007
20
80.100000134110459
0
LWPOLYLINE
5
194
100
AcDbEntity
8
0
100
AcDbPolyline
90
4
70
1
43
0.0
10
34.000000029802322
20
106.70000028312209
10
34.000000029802322
20
99.500000283122063
10
43.200000029802325
20
99.500000283122063
10
43.200000029802325
20
106.70000028312209
0
LWPOLYLINE
5
195
100
AcDbEntity
8
0
100
AcDbPolyline
90
8
70
1
43
0.0
10
65.799999999999997
20
1.5000001341104552
42
-0.41421356237309503
10
65.299999999999997
20
1.0000001341104547
10
56.5
20
1.0000001341104565
42
-0.41421356237309503
10
56.000000000000007
20
1.5000001341104552
10
56.000000000000007
20
7.6000001341104557
42
-0.41421356237309503
10
56.5
20
8.1000001341104539
10
65.299999999999997
20
8.100000134110461
42
-0.41421356237309437
10
65.800000000000011
20
7.6000001341104548
0
LWPOLYLINE
5
196
100
AcDbEntity
8
0
100
AcDbPolyline
90
4
70
1
43
0.0
10
70.000000521540656
20
9.5000002831220627
10
77.550000521540639
20
9.5000002831220627
10
77.550000521540639
20
16.80000028312206
10
70.000000521540656
20
16.80000028312206
0
LWPOLYLINE
5
197
100
AcDbEntity
8
0
100
AcDbPolyline
90
4
70
1
43
0.0
10
87.550000521540653
20
16.80000028312206
10
80.000000521540656
20
16.80000028312206
10
80.000000521540656
20
9.5000002831220627
10
87.550000521540653
20
9.5000002831220627
0
LWPOLYLINE
5
198
100
AcDbEntity
8
0
100
AcDbPolyline
90
4
70
1
43
0.0
10
70.000000029802322
20
8.2000002831220637
10
70.000000029802322
20
1.0000002831220645
10
81.500000029802337
20
1.0000002831220645
10
81.500000029802337
20
8.2000002831220637
0
LWPOLYLINE
5
199
100
AcDbEntity
8
0
100
AcDbPolyline
90
4
70
1
43
0.0
10
90.000000521540656
20
16.80000028312206
10
90.000000521540656
20
9.5000002831220627
10
97.550000521540653
20
9.5000002831220627
10
97.550000521540653
20
16.80000028312206
0
LWPOLYLINE
5
200
100
AcDbEntity
8
0
100
AcDbPolyline
90
4
70
1
43
0.0
10
83.000000029802337
20
19.000000283122066
10
94.500000029802337
20
19.000000283122066
10
94.500000029802337
20
26.200000283122066
10
83.000000029802337
20
26.200000283122066
0
LWPOLYLINE
5
201
100
AcDbEntity
8
0
100
AcDbPolyline
90
4
70
1
43
0.0
10
32.200000029802325
20
70.700000283122066
10
23.000000029802322
20
70.700000283122066
10
23.000000029802322
20
63.500000283122063
10
32.200000029802325
20
63.500000283122063
0
LWPOLYLINE
5
202
100
AcDbEntity
8
0
100
AcDbPolyline
90
4
70
1
43
0.0
10
70.000000029802322
20
26.200000283122066
10
70.000000029802322
20
19.000000283122066
10
81.500000029802337
20
19.000000283122066
10
81.500000029802337
20
26.200000283122066
0
LWPOLYLINE
5
203
100
AcDbEntity
8
0
100
AcDbPolyline
90
8
70
1
43
0.0
10
32.800000000000004
20
55.500000134110451
10
32.800000000000004
20
61.600000134110459
42
0.41421356237309503
10
32.300000000000004
20
62.100000134110459
10
23.500000000000007
20
62.100000134110459
42
0.41421356237309764
10
23.000000000000004
20
61.600000134110459
10
23.000000000000004
20
55.500000134110451
42
0.41421356237309503
10
23.5
20
55.000000134110458
10
32.300000000000004
20
55.000000134110458
42
0.41421356237309503
0
LWPOLYLINE
5
204
100
AcDbEntity
8
0
100
AcDbPolyline
90
4
70
1
43
0.0
10
32.200000029802325
20
52.700000283122073
10
23.000000029802322
20
52.700000283122073
10
23.000000029802322
20
45.500000283122063
10
32.200000029802325
20
45.500000283122063
0
LWPOLYLINE
5
205
100
AcDbEntity
8
0
100
AcDbPolyline
90
8
70
1
43
0.0
10
45.500000000000007
20
1.0000001341104552
10
54.300000000000004
20
1.0000001341104547
42
0.41421356237309503
10
54.800000000000004
20
1.5000001341104552
10
54.800000000000004
20
7.6000001341104548
42
0.41421356237309437
10
54.300000000000004
20
8.1000001341104539
10
45.500000000000007
20
8.1000001341104539
42
0.41421356237309503
10
45
20
7.6000001341104557
10
45
20
1.5000001341104547
42
0.41421356237309503
0
LWPOLYLINE
5
206
100
AcDbEntity
8
0
100
AcDbPolyline
90
4
70
1
43
0.0
10
110.00000052154066
20
9.5000002831220627
10
117.55000052154065
20
9.5000002831220627
10
117.55000052154065
20
16.80000028312206
10
110.00000052154066
20
16.80000028312206
0
LWPOLYLINE
5
207
100
AcDbEntity
8
0
100
AcDbPolyline
90
8
70
1
43
0.0
10
34.5
20
55.000000134110458
42
-0.41421356237309503
10
34
20
55.500000134110451
10
34
20
61.600000134110459
42
-0.41421356237309503
10
34.5
20
62.100000134110459
10
43.299999999999997
20
62.100000134110466
42
-0.41421356237309503
10
43.800000000000011
20
61.600000134110459
10
43.799999999999997
20
55.500000134110451
42
-0.41421356237309503
10
43.299999999999997
20
55.000000134110458
0
LWPOLYLINE
5
208
100
AcDbEntity
8
0
100
AcDbPolyline
90
4
70
1
43
0.0
10
120.50000002980234
20
26.200000283122066
10
109.00000002980235
20
26.200000283122066
10
109.00000002980235
20
19.000000283122066
10
120.50000002980234
20
19.000000283122066
0
LWPOLYLINE
5
209
100
AcDbEntity
8
0
100
AcDbPolyline
90
4
70
1
43
0.0
10
34.000000029802322
20
70.700000283122066
10
34.000000029802322
20
63.500000283122063
10
43.200000029802325
20
63.500000283122063
10
43.200000029802325
20
70.700000283122066
0
LWPOLYLINE
5
210
100
AcDbEntity
8
0
100
AcDbPolyline
90
4
70
1
43
0.0
10
107.55000052154067
20
16.80000028312206
10
100.00000052154067
20
16.80000028312206
10
100.00000052154067
20
9.5000002831220627
10
107.55000052154067
20
9.5000002831220627
0
LWPOLYLINE
5
211
100
AcDbEntity
8
0
100
AcDbPolyline
90
8
70
1
43
0.0
10
21.800000000000001
20
55.500000134110451
10
21.800000000000001
20
61.600000134110459
42
0.41421356237309503
10
21.299999999999997
20
62.100000134110459
10
12.500000000000002
20
62.100000134110459
42
0.41421356237309631
10
12.000000000000002
20
61.600000134110459
10
12.000000000000002
20
55.500000134110451
42
0.41421356237309503
10
12.5
20
55.000000134110458
10
21.299999999999997
20
55.000000134110458
42
0.41421356237309503
0
LWPOLYLINE
5
212
100
AcDbEntity
8
0
100
AcDbPolyline
90
4
70
1
43
0.0
10
1.0000000298023215
20
63.500000283122063
10
10.200000029802322
20
63.500000283122063
10
10.200000029802322
20
70.700000283122066
10
1.0000000298023215
20
70.700000283122066
0
LWPOLYLINE
5
213
100
AcDbEntity
8
0
100
AcDbPolyline
90
4
70
1
43
0.0
10
10.200000029802322
20
52.700000283122073
10
1.0000000298023215
20
52.700000283122073
10
1.0000000298023215
20
45.500000283122063
10
10.200000029802322
20
45.500000283122063
0
LWPOLYLINE
5
214
100
AcDbEntity
8
0
100
AcDbPolyline
90
4
70
1
43
0.0
10
83.000000029802337
20
1.0000002831220645
10
94.500000029802337
20
1.0000002831220645
10
94.500000029802337
20
8.2000002831220637
10
83.000000029802337
20
8.2000002831220637
0
LWPOLYLINE
5
215
100
AcDbEntity
8
0
100
AcDbPolyline
90
4
70
1
43
0.0
10
21.200000029802322
20
52.700000283122073
10
12.000000029802322
20
52.700000283122073
10
12.000000029802322
20
45.500000283122063
10
21.200000029802322
20
45.500000283122063
0
LWPOLYLINE
5
216
100
AcDbEntity
8
0
100
AcDbPolyline
90
4
70
1
43
0.0
10
21.200000029802322
20
70.700000283122066
10
12.000000029802322
20
70.700000283122066
10
12.000000029802322
20
63.500000283122063
10
21.200000029802322
20
63.500000283122063
0
LWPOLYLINE
5
217
100
AcDbEntity
8
0
100
AcDbPolyline
90
4
70
1
43
0.0
10
45.000000029802322
20
16.700000283122062
10
45.000000029802322
20
9.5000002831220627
10
54.200000029802318
20
9.5000002831220627
10
54.200000029802318
20
16.700000283122062
0
LWPOLYLINE
5
218
100
AcDbEntity
8
0
100
AcDbPolyline
90
8
70
1
43
0.0
10
10.300000000000001
20
62.100000134110459
10
1.5000000000000013
20
62.100000134110459
42
0.4142135623730957
10
1.0000000000000009
20
61.600000134110459
10
1.0000000000000009
20
55.500000134110451
42
0.41421356237309503
10
1.5000000000000002
20
55.000000134110458
10
10.300000000000001
20
55.000000134110458
42
0.41421356237309503
10
10.800000000000001
20
55.500000134110451
10
10.800000000000001
20
61.600000134110459
42
0.41421356237309503
0
LWPOLYLINE
5
219
100
AcDbEntity
8
0
100
AcDbPolyline
90
4
70
1
43
0.0
10
150.00026298748864
20
63.500000283122063
10
150.00026298748864
20
70.800000283122074
10
153.30026361784536
20
70.800000283122074
10
153.30026298748865
20
63.500000283122063
0
LWPOLYLINE
5
220
100
AcDbEntity
8
0
100
AcDbPolyline
90
4
70
1
43
0.0
10
65.200000029802325
20
81.500000283122063
10
65.200000029802325
20
88.70000028312208
10
56.000000029802322
20
88.70000028312208
10
56.000000029802322
20
81.500000283122063
0
LWPOLYLINE
5
221
100
AcDbEntity
8
0
100
AcDbPolyline
90
4
70
1
43
0.0
10
70.000000029802322
20
98.20000028312208
10
70.000000029802322
20
91.000000283122091
10
81.500000029802337
20
91.000000283122091
10
81.500000029802337
20
98.20000028312208
0
LWPOLYLINE
5
222
100
AcDbEntity
8
0
100
AcDbPolyline
90
4
70
1
43
0.0
10
65.200000029802325
20
99.500000283122063
10
65.200000029802325
20
106.70000028312209
10
56.000000029802322
20
106.70000028312209
10
56.000000029802322
20
99.500000283122063
0
LWPOLYLINE
5
223
100
AcDbEntity
8
0
100
AcDbPolyline
90
4
70
1
43
0.0
10
135.00000002980235
20
62.200000283122066
10
135.00000002980235
20
55.00000028312207
10
146.50000002980232
20
55.00000028312207
10
146.50000002980232
20
62.200000283122066
0
LWPOLYLINE
5
224
100
AcDbEntity
8
0
100
AcDbPolyline
90
4
70
1
43
0.0
10
70.000000521540656
20
106.80000028312207
10
70.000000521540656
20
99.500000283122063
10
77.550000521540639
20
99.500000283122063
10
77.550000521540639
20
106.80000028312207
0
LWPOLYLINE
5
225
100
AcDbEntity
8
0
100
AcDbPolyline
90
4
70
1
43
0.0
10
143.30026298748865
20
63.500000283122063
10
140.00026298748864
20
63.500000283122063
10
140.00026298748864
20
70.800000283122074
10
143.30026361784536
20
70.800000283122074
0
LWPOLYLINE
5
226
100
AcDbEntity
8
0
100
AcDbPolyline
90
4
70
1
43
0.0
10
160.00026298748864
20
45.500000283122063
10
160.00026298748864
20
52.800000283122074
10
163.30026361784536
20
52.800000283122074
10
163.30026298748862
20
45.500000283122063
0
LWPOLYLINE
5
227
100
AcDbEntity
8
0
100
AcDbPolyline
90
8
70
1
43
0.0
10
56.000000000000007
20
97.600000134110473
10
56.000000000000007
20
91.500000134110465
42
0.41421356237309503
10
56.5
20
91.000000134110479
10
65.299999999999997
20
91.000000134110479
42
0.41421356237309503
10
65.800000000000011
20
91.500000134110465
10
65.800000000000011
20
97.600000134110473
42
0.41421356237309503
10
65.299999999999997
20
98.100000134110473
10
56.5
20
98.100000134110473
42
0.41421356237309503
0
LWPOLYLINE
5
228
100
AcDbEntity
8
0
100
AcDbPolyline
90
4
70
1
43
0.0
10
155.00026298748864
20
70.800000283122074
10
158.30026361784536
20
70.800000283122074
10
158.30026298748865
20
63.500000283122063
10
155.00026298748864
20
63.500000283122063
0
LWPOLYLINE
5
229
100
AcDbEntity
8
0
100
AcDbPolyline
90
4
70
1
43
0.0
10
127.55000052154067
20
63.500000283122063
10
127.55000052154067
20
70.80000028312206
10
120.00000052154067
20
70.80000028312206
10
120.00000052154067
20
63.500000283122063
0
LWPOLYLINE
5
230
100
AcDbEntity
8
0
100
AcDbPolyline
90
4
70
1
43
0.0
10
138.30026361784536
20
70.800000283122074
10
138.30026298748865
20
63.500000283122063
10
135.00026298748864
20
63.500000283122063
10
135.00026298748864
20
70.800000283122074
0
LWPOLYLINE
5
231
100
AcDbEntity
8
0
100
AcDbPolyline
90
4
70
1
43
0.0
10
148.30026361784536
20
70.800000283122074
10
148.30026298748865
20
63.500000283122063
10
145.00026298748864
20
63.500000283122063
10
145.00026298748864
20
70.800000283122074
0
LWPOLYLINE
5
232
100
AcDbEntity
8
0
100
AcDbPolyline
90
4
70
1
43
0.0
10
133.50000002980232
20
62.200000283122066
10
122.00000002980234
20
62.200000283122066
10
122.00000002980234
20
55.00000028312207
10
133.50000002980232
20
55.00000028312207
0
LWPOLYLINE
5
233
100
AcDbEntity
8
0
100
AcDbPolyline
90
4
70
1
43
0.0
10
133.50000002980232
20
73.000000283122077
10
133.50000002980232
20
80.20000028312208
10
122.00000002980234
20
80.20000028312208
10
122.00000002980234
20
73.000000283122077
0
LWPOLYLINE
5
234
100
AcDbEntity
8
0
100
AcDbPolyline
90
4
70
1
43
0.0
10
155.00026298748864
20
34.80000028312206
10
158.30026361784536
20
34.80000028312206
10
158.30026298748865
20
27.500000283122063
10
155.00026298748864
20
27.500000283122063
0
LWPOLYLINE
5
235
100
AcDbEntity
8
0
100
AcDbPolyline
90
4
70
1
43
0.0
10
160.00026298748864
20
63.500000283122063
10
160.00026298748864
20
70.800000283122074
10
163.30026361784536
20
70.800000283122074
10
163.30026298748862
20
63.500000283122063
0
LWPOLYLINE
5
236
100
AcDbEntity
8
0
100
AcDbPolyline
90
4
70
1
43
0.0
10
146.50000002980232
20
73.000000283122077
10
146.50000002980232
20
80.20000028312208
10
135.00000002980235
20
80.20000028312208
10
135.00000002980235
20
73.000000283122077
0
LWPOLYLINE
5
237
100
AcDbEntity
8
0
100
AcDbPolyline
90
4
70
1
43
0.0
10
10.200000029802322
20
34.700000283122066
10
1.0000000298023215
20
34.700000283122066
10
1.0000000298023215
20
27.500000283122063
10
10.200000029802322
20
27.500000283122063
0
LWPOLYLINE
5
238
100
AcDbEntity
8
0
100
AcDbPolyline
90
4
70
1
43
0.0
10
21.200000029802322
20
34.700000283122066
10
12.000000029802322
20
34.700000283122066
10
12.000000029802322
20
27.500000283122063
10
21.200000029802322
20
27.500000283122063
0
LWPOLYLINE
5
239
100
AcDbEntity
8
0
100
AcDbPolyline
90
4
70
1
43
0.0
10
96.000000029802351
20
26.200000283122066
10
96.000000029802351
20
19.000000283122066
10
107.50000002980232
20
19.000000283122066
10
107.50000002980232
20
26.200000283122066
0
LWPOLYLINE
5
240
100
AcDbEntity
8
0
100
AcDbPolyline
90
4
70
1
43
0.0
10
65.200000029802325
20
16.700000283122062
10
56.000000029802322
20
16.700000283122062
10
56.000000029802322
20
9.5000002831220627
10
65.200000029802325
20
9.5000002831220627
0
LWPOLYLINE
5
241
100
AcDbEntity
8
0
100
AcDbPolyline
90
4
70
1
43
0.0
10
107.50000002980232
20
1.0000002831220645
10
107.50000002980232
20
8.2000002831220637
10
96.000000029802351
20
8.2000002831220637
10
96.000000029802351
20
1.0000002831220645
0
LWPOLYLINE
5
242
100
AcDbEntity
8
0
100
AcDbPolyline
90
4
70
1
43
0.0
10
120.50000002980234
20
8.2000002831220637
10
109.00000002980235
20
8.2000002831220637
10
109.00000002980235
20
1.0000002831220645
10
120.50000002980234
20
1.0000002831220645
0
LWPOLYLINE
5
243
100
AcDbEntity
8
0
100
AcDbPolyline
90
4
70
1
43
0.0
10
34.000000029802322
20
45.500000283122063
10
43.200000029802325
20
45.500000283122063
10
43.200000029802325
20
52.700000283122073
10
34.000000029802322
20
52.700000283122073
0
LWPOLYLINE
5
244
100
AcDbEntity
8
0
100
AcDbPolyline
90
4
70
1
43
0.0
10
80.000000521540656
20
106.80000028312207
10
80.000000521540656
20
99.500000283122063
10
87.550000521540653
20
99.500000283122063
10
87.550000521540653
20
106.80000028312207
0
LWPOLYLINE
5
245
100
AcDbEntity
8
0
100
AcDbPolyline
90
4
70
1
43
0.0
10
120.00000052154067
20
52.80000028312206
10
120.00000052154067
20
45.500000283122063
10
127.55000052154067
20
45.500000283122063
10
127.55000052154067
20
52.80000028312206
0
LWPOLYLINE
5
246
100
AcDbEntity
8
0
100
AcDbPolyline
90
4
70
1
43
0.0
10
87.550000521540653
20
81.500000283122063
10
87.550000521540653
20
88.800000283122074
10
80.000000521540656
20
88.800000283122074
10
80.000000521540656
20
81.500000283122063
0
LWPOLYLINE
5
247
100
AcDbEntity
8
0
100
AcDbPolyline
90
4
70
1
43
0.0
10
138.30026298748865
20
45.500000283122063
10
135.00026298748864
20
45.500000283122063
10
135.00026298748864
20
52.800000283122074
10
138.30026361784536
20
52.800000283122074
0
LWPOLYLINE
5
248
100
AcDbEntity
8
0
100
AcDbPolyline
90
4
70
1
43
0.0
10
83.000000029802337
20
91.000000283122091
10
94.500000029802337
20
91.000000283122091
10
94.500000029802337
20
98.20000028312208
10
83.000000029802337
20
98.20000028312208
0
LWPOLYLINE
5
249
100
AcDbEntity
8
0
100
AcDbPolyline
90
4
70
1
43
0.0
10
133.50000002980232
20
37.00000028312207
10
133.50000002980232
20
44.200000283122066
10
122.00000002980234
20
44.200000283122066
10
122.00000002980234
20
37.00000028312207
0
LWPOLYLINE
5
250
100
AcDbEntity
8
0
100
AcDbPolyline
90
4
70
1
43
0.0
10
56.000000029802322
20
70.700000283122066
10
56.000000029802322
20
63.500000283122063
10
65.200000029802325
20
63.500000283122063
10
65.200000029802325
20
70.700000283122066
0
LWPOLYLINE
5
251
100
AcDbEntity
8
0
100
AcDbPolyline
90
4
70
1
43
0.0
10
140.00026298748864
20
34.80000028312206
10
143.30026361784536
20
34.80000028312206
10
143.30026298748865
20
27.500000283122063
10
140.00026298748864
20
27.500000283122063
0
LWPOLYLINE
5
252
100
AcDbEntity
8
0
100
AcDbPolyline
90
4
70
1
43
0.0
10
140.00026298748864
20
45.500000283122063
10
140.00026298748864
20
52.800000283122074
10
143.30026361784536
20
52.800000283122074
10
143.30026298748865
20
45.500000283122063
0
LWPOLYLINE
5
253
100
AcDbEntity
8
0
100
AcDbPolyline
90
4
70
1
43
0.0
10
135.00026298748864
20
27.500000283122063
10
135.00026298748864
20
34.80000028312206
10
138.30026361784536
20
34.80000028312206
10
138.30026298748865
20
27.500000283122063
0
LWPOLYLINE
5
254
100
AcDbEntity
8
0
100
AcDbPolyline
90
4
70
1
43
0.0
10
127.55000052154067
20
34.80000028312206
10
120.00000052154067
20
34.80000028312206
10
120.00000052154067
20
27.500000283122063
10
127.55000052154067
20
27.500000283122063
0
LWPOLYLINE
5
255
100
AcDbEntity
8
0
100
AcDbPolyline
90
4
70
1
43
0.0
10
107.50000002980232
20
91.000000283122091
10
107.50000002980232
20
98.20000028312208
10
96.000000029802351
20
98.20000028312208
10
96.000000029802351
20
91.000000283122091
0
LWPOLYLINE
5
256
100
AcDbEntity
8
0
100
AcDbPolyline
90
8
70
1
43
0.0
10
45
20
97.600000134110473
10
45
20
91.500000134110465
42
0.41421356237309503
10
45.500000000000007
20
91.000000134110479
10
54.300000000000004
20
91.000000134110479
42
0.41421356237309503
10
54.800000000000004
20
91.500000134110465
10
54.800000000000004
20
97.600000134110473
42
0.41421356237309503
10
54.300000000000004
20
98.100000134110473
10
45.500000000000007
20
98.100000134110473
42
0.41421356237309503
0
LWPOLYLINE
5
257
100
AcDbEntity
8
0
100
AcDbPolyline
90
4
70
1
43
0.0
10
45.000000029802322
20
106.70000028312209
10
45.000000029802322
20
99.500000283122063
10
54.200000029802318
20
99.500000283122063
10
54.200000029802318
20
106.70000028312209
0
LWPOLYLINE
5
258
100
AcDbEntity
8
0
100
AcDbPolyline
90
4
70
1
43
0.0
10
100.00000052154067
20
99.500000283122063
10
107.55000052154067
20
99.500000283122063
10
107.55000052154067
20
106.80000028312207
10
100.00000052154067
20
106.80000028312207
0
LWPOLYLINE
5
259
100
AcDbEntity
8
0
100
AcDbPolyline
90
4
70
1
43
0.0
10
117.55000052154065
20
99.500000283122063
10
117.55000052154065
20
106.80000028312207
10
110.00000052154066
20
106.80000028312207
10
110.00000052154066
20
99.500000283122063
0
LWPOLYLINE
5
260
100
AcDbEntity
8
0
100
AcDbPolyline
90
8
70
1
43
0.0
10
54.300000000000004
20
80.100000134110459
10
45.500000000000007
20
80.100000134110459
42
0.41421356237309503
10
45
20
79.600000134110459
10
45
20
73.500000134110465
42
0.41421356237309503
10
45.500000000000007
20
73.000000134110465
10
54.300000000000004
20
73.000000134110465
42
0.41421356237309503
10
54.800000000000004
20
73.500000134110465
10
54.800000000000004
20
79.600000134110459
42
0.41421356237309503
0
LWPOLYLINE
5
261
100
AcDbEntity
8
0
100
AcDbPolyline
90
4
70
1
43
0.0
10
97.550000521540653
20
106.80000028312207
10
90.000000521540656
20
106.80000028312207
10
90.000000521540656
20
99.500000283122063
10
97.550000521540653
20
99.500000283122063
0
LWPOLYLINE
5
262
100
AcDbEntity
8
0
100
AcDbPolyline
90
4
70
1
43
0.0
10
135.00000002980235
20
44.200000283122066
10
135.00000002980235
20
37.00000028312207
10
146.50000002980232
20
37.00000028312207
10
146.50000002980232
20
44.200000283122066
0
LWPOLYLINE
5
263
100
AcDbEntity
8
0
100
AcDbPolyline
90
4
70
1
43
0.0
10
80.000000521540656
20
63.500000283122063
10
87.550000521540653
20
63.500000283122063
10
87.550000521540653
20
70.80000028312206
10
80.000000521540656
20
70.80000028312206
0
LWPOLYLINE
5
264
100
AcDbEntity
8
0
100
AcDbPolyline
90
4
70
1
43
0.0
10
77.550000521540639
20
63.500000283122063
10
77.550000521540639
20
70.80000028312206
10
70.000000521540656
20
70.80000028312206
10
70.000000521540656
20
63.500000283122063
0
LWPOLYLINE
5
265
100
AcDbEntity
8
0
100
AcDbPolyline
90
4
70
1
43
0.0
10
138.30026298748865
20
9.5000002831220627
10
135.00026298748864
20
9.5000002831220627
10
135.00026298748864
20
16.800000283122063
10
138.30026361784536
20
16.800000283122063
0
LWPOLYLINE
5
266
100
AcDbEntity
8
0
100
AcDbPolyline
90
4
70
1
43
0.0
10
122.00000002980234
20
19.000000283122066
10
133.50000002980232
20
19.000000283122066
10
133.50000002980232
20
26.200000283122066
10
122.00000002980234
20
26.200000283122066
0
LWPOLYLINE
5
267
100
AcDbEntity
8
0
100
AcDbPolyline
90
4
70
1
43
0.0
10
122.00000002980234
20
8.2000002831220637
10
122.00000002980234
20
1.0000002831220645
10
133.50000002980232
20
1.0000002831220645
10
133.50000002980232
20
8.2000002831220637
0
LWPOLYLINE
5
268
100
AcDbEntity
8
0
100
AcDbPolyline
90
4
70
1
43
0.0
10
81.500000029802337
20
80.20000028312208
10
70.000000029802322
20
80.20000028312208
10
70.000000029802322
20
73.000000283122077
10
81.500000029802337
20
73.000000283122077
0
LWPOLYLINE
5
269
100
AcDbEntity
8
0
100
AcDbPolyline
90
4
70
1
43
0.0
10
127.55000052154067
20
9.5000002831220627
10
127.55000052154067
20
16.80000028312206
10
120.00000052154067
20
16.80000028312206
10
120.00000052154067
20
9.5000002831220627
0
LWPOLYLINE
5
270
100
AcDbEntity
8
0
100
AcDbPolyline
90
4
70
1
43
0.0
10
45.000000029802322
20
63.500000283122063
10
54.200000029802318
20
63.500000283122063
10
54.200000029802318
20
70.700000283122066
10
45.000000029802322
20
70.700000283122066
0
LWPOLYLINE
5
271
100
AcDbEntity
8
0
100
AcDbPolyline
90
4
70
1
43
0.0
10
90.000000521540656
20
70.80000028312206
10
90.000000521540656
20
63.500000283122063
10
97.550000521540653
20
63.500000283122063
10
97.550000521540653
20
70.80000028312206
0
LWPOLYLINE
5
272
100
AcDbEntity
8
0
100
AcDbPolyline
90
8
70
1
43
0.0
10
32.300000000000004
20
44.100000134110459
10
23.500000000000007
20
44.100000134110459
42
0.41421356237309764
10
23.000000000000004
20
43.600000134110459
10
23.000000000000004
20
37.500000134110458
42
0.41421356237309503
10
23.5
20
37.000000134110458
10
32.300000000000004
20
37.000000134110458
42
0.41421356237309503
10
32.800000000000004
20
37.500000134110458
10
32.800000000000004
20
43.600000134110459
42
0.41421356237309503
0
LWPOLYLINE
5
273
100
AcDbEntity
8
0
100
AcDbPolyline
90
4
70
1
43
0.0
10
23.000000029802322
20
34.700000283122066
10
23.000000029802322
20
27.500000283122063
10
32.200000029802325
20
27.500000283122063
10
32.200000029802325
20
34.700000283122066
0
LWPOLYLINE
5
274
100
AcDbEntity
8
0
100
AcDbPolyline
90
4
70
1
43
0.0
10
148.30026298748865
20
45.500000283122063
10
145.00026298748864
20
45.500000283122063
10
145.00026298748864
20
52.800000283122074
10
148.30026361784536
20
52.800000283122074
0
LWPOLYLINE
5
275
100
AcDbEntity
8
0
100
AcDbPolyline
90
4
70
1
43
0.0
10
153.30026298748865
20
45.500000283122063
10
150.00026298748864
20
45.500000283122063
10
150.00026298748864
20
52.800000283122074
10
153.30026361784536
20
52.800000283122074
0
LWPOLYLINE
5
276
100
AcDbEntity
8
0
100
AcDbPolyline
90
4
70
1
43
0.0
10
158.30026298748865
20
45.500000283122063
10
155.00026298748864
20
45.500000283122063
10
155.00026298748864
20
52.800000283122074
10
158.30026361784536
20
52.800000283122074
0
LWPOLYLINE
5
277
100
AcDbEntity
8
0
100
AcDbPolyline
90
4
70
1
43
0.0
10
145.00026298748864
20
27.500000283122063
10
145.00026298748864
20
34.80000028312206
10
148.30026361784536
20
34.80000028312206
10
148.30026298748865
20
27.500000283122063
0
LWPOLYLINE
5
278
100
AcDbEntity
8
0
100
AcDbPolyline
90
4
70
1
43
0.0
10
45.000000029802322
20
81.500000283122063
10
54.200000029802318
20
81.500000283122063
10
54.200000029802318
20
88.70000028312208
10
45.000000029802322
20
88.70000028312208
0
LWPOLYLINE
5
279
100
AcDbEntity
8
0
100
AcDbPolyline
90
4
70
1
43
0.0
10
117.55000052154065
20
81.500000283122063
10
117.55000052154065
20
88.800000283122074
10
110.00000052154066
20
88.800000283122074
10
110.00000052154066
20
81.500000283122063
0
ENDSEC
0
SECTION
2
OBJECTS
0
DICTIONARY
5
C
100
AcDbDictionary
3
ACAD_GROUP
350
D
3
ACAD_MLINESTYLE
350
17
0
DICTIONARY
5
D
100
AcDbDictionary
0
DICTIONARY
5
1A
330
C
100
AcDbDictionary
0
DICTIONARY
5
17
100
AcDbDictionary
0
ENDSEC
0
EOF
