0
SECTION
2
HEADER
9
$INSUNITS
70
4
9
$ACADVER
1
AC1014
9
$HANDSEED
5
FFFF
0
ENDSEC
0
SECTION
2
TABLES
0
TABLE
2
VPORT
5
8
100
AcDbSymbolTable
0
ENDTAB
0
TABLE
2
LTYPE
5
5
100
AcDbSymbolTable
0
LTYPE
5
14
100
AcDbSymbolTableRecord
100
AcDbLinetypeTableRecord
2
BYBLOCK
70
0
0
LTYPE
5
15
100
AcDbSymbolTableRecord
100
AcDbLinetypeTableRecord
2
BYLAYER
70
0
0
ENDTAB
0
TABLE
2
LAYER
5
2
100
AcDbSymbolTable
70
2
0
LAYER
5
50
100
AcDbSymbolTableRecord
100
AcDbLayerTableRecord
2
0
70
0
6
CONTINUOUS
0
ENDTAB
0
TABLE
2
STYLE
5
3
100
AcDbSymbolTable
70
1
0
STYLE
5
11
100
AcDbSymbolTableRecord
100
AcDbTextStyleTableRecord
2
STANDARD
70
0
0
ENDTAB
0
TABLE
2
VIEW
5
6
100
AcDbSymbolTable
70
0
0
ENDTAB
0
TABLE
2
UCS
5
7
100
AcDbSymbolTable
70
0
0
ENDTAB
0
TABLE
2
APPID
5
9
100
AcDbSymbolTable
70
2
0
APPID
5
12
100
AcDbSymbolTableRecord
100
AcDbRegAppTableRecord
2
ACAD
70
0
0
ENDTAB
0
TABLE
2
DIMSTYLE
5
A
100
AcDbSymbolTable
70
1
0
ENDTAB
0
TABLE
2
BLOCK_RECORD
5
1
100
AcDbSymbolTable
70
1
0
BLOCK_RECORD
5
1F
100
AcDbSymbolTableRecord
100
AcDbBlockTableRecord
2
*MODEL_SPACE
0
BLOCK_RECORD
5
1B
100
AcDbSymbolTableRecord
100
AcDbBlockTableRecord
2
*PAPER_SPACE
0
ENDTAB
0
ENDSEC
0
SECTION
2
BLOCKS
0
BLOCK
5
20
100
AcDbEntity
100
AcDbBlockBegin
2
*MODEL_SPACE
0
ENDBLK
5
21
100
AcDbEntity
100
AcDbBlockEnd
0
BLOCK
5
1C
100
AcDbEntity
100
AcDbBlockBegin
2
*PAPER_SPACE
0
ENDBLK
5
1D
100
AcDbEntity
100
AcDbBlockEnd
0
ENDSEC
0
SECTION
2
ENTITIES
0
LWPOLYLINE
5
100
100
AcDbEntity
8
0
100
AcDbPolyline
90
4
70
1
43
0.0
10
12.000000014901161
20
1.0000000149011612
10
1.0000000149011612
20
1.0000000149011612
10
1.0000000149011612
20
9.0000000149011612
10
12.000000014901161
20
9.0000000149011612
0
LWPOLYLINE
5
101
100
AcDbEntity
8
0
100
AcDbPolyline
90
4
70
1
43
0.0
10
24.000000014901165
20
1.0000000149011612
10
13.000000014901163
20
1.0000000149011612
10
13.000000014901163
20
9.0000000149011612
10
24.000000014901165
20
9.0000000149011612
0
LWPOLYLINE
5
102
100
AcDbEntity
8
0
100
AcDbPolyline
90
4
70
1
43
0.0
10
36.000000014901168
20
1.0000000149011612
10
25.000000014901165
20
1.0000000149011612
10
25.000000014901165
20
9.0000000149011612
10
36.000000014901168
20
9.0000000149011612
0
LWPOLYLINE
5
103
100
AcDbEntity
8
0
100
AcDbPolyline
90
4
70
1
43
0.0
10
48.000000014901175
20
1.0000000149011612
10
37.000000014901168
20
1.0000000149011612
10
37.000000014901168
20
9.0000000149011612
10
48.000000014901175
20
9.0000000149011612
0
LWPOLYLINE
5
104
100
AcDbEntity
8
0
100
AcDbPolyline
90
4
70
1
43
0.0
10
60.000000014901161
20
1.0000000149011612
10
49.000000014901168
20
1.0000000149011612
10
49.000000014901168
20
9.0000000149011612
10
60.000000014901161
20
9.0000000149011612
0
LWPOLYLINE
5
105
100
AcDbEntity
8
0
100
AcDbPolyline
90
4
70
1
43
0.0
10
72.000000014901175
20
1.0000000149011612
10
61.000000014901168
20
1.0000000149011612
10
61.000000014901168
20
9.0000000149011612
10
72.000000014901175
20
9.0000000149011612
0
LWPOLYLINE
5
106
100
AcDbEntity
8
0
100
AcDbPolyline
90
4
70
1
43
0.0
10
84.000000014901161
20
1.0000000149011612
10
73.000000014901175
20
1.0000000149011612
10
73.000000014901175
20
9.0000000149011612
10
84.000000014901161
20
9.0000000149011612
0
LWPOLYLINE
5
107
100
AcDbEntity
8
0
100
AcDbPolyline
90
4
70
1
43
0.0
10
96.000000014901175
20
1.0000000149011612
10
85.00000001490119
20
1.0000000149011612
10
85.00000001490119
20
9.0000000149011612
10
96.000000014901175
20
9.0000000149011612
0
LWPOLYLINE
5
108
100
AcDbEntity
8
0
100
AcDbPolyline
90
4
70
1
43
0.0
10
108.00000001490119
20
1.0000000149011612
10
97.000000014901175
20
1.0000000149011612
10
97.000000014901175
20
9.0000000149011612
10
108.00000001490119
20
9.0000000149011612
0
LWPOLYLINE
5
109
100
AcDbEntity
8
0
100
AcDbPolyline
90
4
70
1
43
0.0
10
120.00000001490119
20
1.0000000149011612
10
109.0000000149012
20
1.0000000149011612
10
109.0000000149012
20
9.0000000149011612
10
120.00000001490119
20
9.0000000149011612
0
LWPOLYLINE
5
110
100
AcDbEntity
8
0
100
AcDbPolyline
90
4
70
1
43
0.0
10
132.00000001490119
20
1.0000000149011612
10
121.00000001490118
20
1.0000000149011612
10
121.00000001490118
20
9.0000000149011612
10
132.00000001490119
20
9.0000000149011612
0
LWPOLYLINE
5
111
100
AcDbEntity
8
0
100
AcDbPolyline
90
4
70
1
43
0.0
10
144.00000001490119
20
1.0000000149011612
10
133.00000001490122
20
1.0000000149011612
10
133.00000001490122
20
9.0000000149011612
10
144.00000001490119
20
9.0000000149011612
0
LWPOLYLINE
5
112
100
AcDbEntity
8
0
100
AcDbPolyline
90
4
70
1
43
0.0
10
7.0000000149011621
20
10.000000149011612
10
1.0000000149011612
20
10.000000149011612
10
1.0000000149011612
20
18.000000149011612
10
7.0000000149011621
20
18.000000149011612
0
LWPOLYLINE
5
113
100
AcDbEntity
8
0
100
AcDbPolyline
90
4
70
1
43
0.0
10
8.0000000149011612
20
10.000000149011612
10
8.0000000149011612
20
18.000000149011612
10
14.000000014901165
20
18.000000149011612
10
14.000000014901165
20
10.000000149011612
0
LWPOLYLINE
5
114
100
AcDbEntity
8
0
100
AcDbPolyline
90
4
70
1
43
0.0
10
21.000000014901161
20
10.000000149011612
10
15.000000014901163
20
10.000000149011612
10
15.000000014901163
20
18.000000149011612
10
21.000000014901161
20
18.000000149011612
0
LWPOLYLINE
5
115
100
AcDbEntity
8
0
100
AcDbPolyline
90
4
70
1
43
0.0
10
28.000000014901161
20
10.000000149011612
10
22.000000014901161
20
10.000000149011612
10
22.000000014901161
20
18.000000149011612
10
28.000000014901161
20
18.000000149011612
0
LWPOLYLINE
5
116
100
AcDbEntity
8
0
100
AcDbPolyline
90
4
70
1
43
0.0
10
29.000000014901165
20
10.000000149011612
10
29.000000014901165
20
18.000000149011612
10
35.000000014901161
20
18.000000149011612
10
35.000000014901161
20
10.000000149011612
0
LWPOLYLINE
5
117
100
AcDbEntity
8
0
100
AcDbPolyline
90
4
70
1
43
0.0
10
36.000000014901168
20
10.000000149011612
10
36.000000014901168
20
18.000000149011612
10
42.000000014901168
20
18.000000149011612
10
42.000000014901168
20
10.000000149011612
0
LWPOLYLINE
5
118
100
AcDbEntity
8
0
100
AcDbPolyline
90
4
70
1
43
0.0
10
43.000000014901161
20
10.000000149011612
10
43.000000014901161
20
18.000000149011612
10
49.000000014901168
20
18.000000149011612
10
49.000000014901168
20
10.000000149011612
0
LWPOLYLINE
5
119
100
AcDbEntity
8
0
100
AcDbPolyline
90
4
70
1
43
0.0
10
50.000000014901161
20
10.000000149011612
10
50.000000014901161
20
18.000000149011612
10
56.000000014901161
20
18.000000149011612
10
56.000000014901161
20
10.000000149011612
0
LWPOLYLINE
5
120
100
AcDbEntity
8
0
100
AcDbPolyline
90
4
70
1
43
0.0
10
63.000000014901175
20
10.000000149011612
10
57.000000014901168
20
10.000000149011612
10
57.000000014901168
20
18.000000149011612
10
63.000000014901175
20
18.000000149011612
0
LWPOLYLINE
5
121
100
AcDbEntity
8
0
100
AcDbPolyline
90
4
70
1
43
0.0
10
70.000000014901161
20
10.000000149011612
10
64.000000014901161
20
10.000000149011612
10
64.000000014901161
20
18.000000149011612
10
70.000000014901161
20
18.000000149011612
0
LWPOLYLINE
5
122
100
AcDbEntity
8
0
100
AcDbPolyline
90
4
70
1
43
0.0
10
169.0000021606684
20
10.000000014901161
10
159.0000021606684
20
10.000000014901161
10
159.0000021606684
20
18.000000014901161
10
169.0000021606684
20
18.000000014901161
0
LWPOLYLINE
5
123
100
AcDbEntity
8
0
100
AcDbPolyline
90
4
70
1
43
0.0
10
169.00000231713057
20
1.0000000149011612
10
159.00000231713057
20
1.0000000149011612
10
159.00000231713057
20
6.5840000149011608
10
169.00000231713057
20
6.5840000149011608
0
LWPOLYLINE
5
124
100
AcDbEntity
8
0
100
AcDbPolyline
90
4
70
1
43
0.0
10
169.00000231713057
20
9.0000001341104507
10
159.00000231713057
20
9.0000001341104507
10
159.00000231713057
20
6.8840001341104511
10
169.00000231713057
20
6.8840001341104511
0
LWPOLYLINE
5
125
100
AcDbEntity
8
0
100
AcDbPolyline
90
8
70
1
43
0.0
10
71
20
10.699899402742348
10
71.000000000000014
20
18.199899402742346
42
-0.41421356237309503
10
71.700000000000003
20
18.899899402742346
10
82.199999999999989
20
18.899899402742349
42
-0.41421356237309503
10
82.899999999999991
20
18.199899402742346
10
82.900000000000034
20
10.699899402742348
42
-0.41421356237310991
10
82.199999999999989
20
9.9998994027423489
10
71.700000000000003
20
9.9998994027423471
42
-0.41421356237309415
0
LWPOLYLINE
5
126
100
AcDbEntity
8
0
100
AcDbPolyline
90
8
70
1
43
0.0
10
84
20
10.699899402742348
10
84
20
18.199899402742346
42
-0.41421356237309503
10
84.700000000000003
20
18.899899402742346
10
95.199999999999989
20
18.899899402742349
42
-0.41421356237309503
10
95.900000000000006
20
18.199899402742346
10
95.900000000000034
20
10.699899402742348
42
-0.41421356237310991
10
95.199999999999989
20
9.9998994027423489
10
84.700000000000003
20
9.9998994027423471
42
-0.41421356237309415
0
LWPOLYLINE
5
127
100
AcDbEntity
8
0
100
AcDbPolyline
90
8
70
1
43
0.0
10
97.000000000000014
20
10.699899402742348
10
97.000000000000014
20
18.199899402742346
42
-0.41421356237309503
10
97.700000000000017
20
18.899899402742346
10
108.2
20
18.899899402742349
42
-0.41421356237309503
10
108.90000000000001
20
18.199899402742346
10
108.90000000000003
20
10.699899402742348
42
-0.41421356237310991
10
108.2
20
9.9998994027423489
10
97.700000000000017
20
9.9998994027423471
42
-0.41421356237309415
0
LWPOLYLINE
5
128
100
AcDbEntity
8
0
100
AcDbPolyline
90
8
70
1
43
0.0
10
115.7
20
10.000000178813945
42
-0.41421356237309503
10
115.00000000000001
20
10.70000017881393
10
115
20
18.20000017881393
42
-0.41421356237309503
10
115.7
20
18.900000178813929
10
126.90000000000001
20
18.900000178813933
42
-0.41421356237309503
10
127.60000000000002
20
18.20000017881393
10
127.60000000000002
20
10.70000017881393
42
-0.41421356237309503
10
126.90000000000001
20
10.000000178813931
0
LWPOLYLINE
5
129
100
AcDbEntity
8
0
100
AcDbPolyline
90
8
70
1
43
0.0
10
140.90000000000001
20
18.900000178813933
42
-0.41421356237309503
10
141.60000000000002
20
18.20000017881393
10
141.60000000000002
20
10.70000017881393
42
-0.41421356237309503
10
140.90000000000001
20
10.000000178813931
10
129.70000000000002
20
10.000000178813945
42
-0.41421356237309503
10
129.00000000000003
20
10.70000017881393
10
129
20
18.20000017881393
42
-0.41421356237309503
10
129.70000000000002
20
18.900000178813929
0
LWPOLYLINE
5
130
100
AcDbEntity
8
0
100
AcDbPolyline
90
8
70
1
43
0.0
10
155.60000000000002
20
10.70000017881393
42
-0.41421356237309503
10
154.90000000000003
20
10.000000178813931
10
143.70000000000002
20
10.000000178813945
42
-0.41421356237309503
10
143.00000000000003
20
10.70000017881393
10
143
20
18.20000017881393
42
-0.41421356237309503
10
143.70000000000002
20
18.900000178813929
10
154.90000000000003
20
18.900000178813933
42
-0.41421356237309503
10
155.60000000000002
20
18.20000017881393
0
LWPOLYLINE
5
131
100
AcDbEntity
8
0
100
AcDbPolyline
90
4
70
1
43
0.0
10
170.00000231713059
20
6.8840001341104511
10
180.00000231713059
20
6.8840001341104511
10
180.00000231713059
20
9.0000001341104507
10
170.00000231713059
20
9.0000001341104507
0
LWPOLYLINE
5
132
100
AcDbEntity
8
0
100
AcDbPolyline
90
4
70
1
43
0.0
10
170.00000231713059
20
1.0000000149011612
10
170.00000231713059
20
6.5840000149011608
10
180.00000231713059
20
6.5840000149011608
10
180.00000231713059
20
1.0000000149011612
0
LWPOLYLINE
5
133
100
AcDbEntity
8
0
100
AcDbPolyline
90
4
70
1
43
0.0
10
180.0000021606684
20
10.000000014901161
10
170.0000021606684
20
10.000000014901161
10
170.0000021606684
20
18.000000014901161
10
180.0000021606684
20
18.000000014901161
0
ENDSEC
0
SECTION
2
OBJECTS
0
DICTIONARY
5
C
100
AcDbDictionary
3
ACAD_GROUP
350
D
3
ACAD_MLINESTYLE
350
17
0
DICTIONARY
5
D
100
AcDbDictionary
0
DICTIONARY
5
1A
330
C
100
AcDbDictionary
0
DICTIONARY
5
17
100
AcDbDictionary
0
ENDSEC
0
EOF
