0
SECTION
2
HEADER
9
$INSUNITS
70
4
9
$ACADVER
1
AC1014
9
$HANDSEED
5
FFFF
0
ENDSEC
0
SECTION
2
TABLES
0
TABLE
2
VPORT
5
8
100
AcDbSymbolTable
0
ENDTAB
0
TABLE
2
LTYPE
5
5
100
AcDbSymbolTable
0
LTYPE
5
14
100
AcDbSymbolTableRecord
100
AcDbLinetypeTableRecord
2
BYBLOCK
70
0
0
LTYPE
5
15
100
AcDbSymbolTableRecord
100
AcDbLinetypeTableRecord
2
BYLAYER
70
0
0
ENDTAB
0
TABLE
2
LAYER
5
2
100
AcDbSymbolTable
70
2
0
LAYER
5
50
100
AcDbSymbolTableRecord
100
AcDbLayerTableRecord
2
0
70
0
6
CONTINUOUS
0
ENDTAB
0
TABLE
2
STYLE
5
3
100
AcDbSymbolTable
70
1
0
STYLE
5
11
100
AcDbSymbolTableRecord
100
AcDbTextStyleTableRecord
2
STANDARD
70
0
0
ENDTAB
0
TABLE
2
VIEW
5
6
100
AcDbSymbolTable
70
0
0
ENDTAB
0
TABLE
2
UCS
5
7
100
AcDbSymbolTable
70
0
0
ENDTAB
0
TABLE
2
APPID
5
9
100
AcDbSymbolTable
70
2
0
APPID
5
12
100
AcDbSymbolTableRecord
100
AcDbRegAppTableRecord
2
ACAD
70
0
0
ENDTAB
0
TABLE
2
DIMSTYLE
5
A
100
AcDbSymbolTable
70
1
0
ENDTAB
0
TABLE
2
BLOCK_RECORD
5
1
100
AcDbSymbolTable
70
1
0
BLOCK_RECORD
5
1F
100
AcDbSymbolTableRecord
100
AcDbBlockTableRecord
2
*MODEL_SPACE
0
BLOCK_RECORD
5
1B
100
AcDbSymbolTableRecord
100
AcDbBlockTableRecord
2
*PAPER_SPACE
0
ENDTAB
0
ENDSEC
0
SECTION
2
BLOCKS
0
BLOCK
5
20
100
AcDbEntity
100
AcDbBlockBegin
2
*MODEL_SPACE
0
ENDBLK
5
21
100
AcDbEntity
100
AcDbBlockEnd
0
BLOCK
5
1C
100
AcDbEntity
100
AcDbBlockBegin
2
*PAPER_SPACE
0
ENDBLK
5
1D
100
AcDbEntity
100
AcDbBlockEnd
0
ENDSEC
0
SECTION
2
ENTITIES
0
LWPOLYLINE
5
100
100
AcDbEntity
8
0
100
AcDbPolyline
90
4
70
1
43
0.0
10
169.00000231713057
20
1.0000000149011612
10
159.00000231713057
20
1.0000000149011612
10
159.00000231713057
20
6.5840000149011608
10
169.00000231713057
20
6.5840000149011608
0
LWPOLYLINE
5
101
100
AcDbEntity
8
0
100
AcDbPolyline
90
8
70
1
43
0.0
10
154.90000000000003
20
18.900000178813933
10
143.70000000000002
20
18.900000178813929
42
0.41421356237309503
10
143.00000000000003
20
18.20000017881393
10
143.00000000000003
20
10.70000017881393
42
0.41421356237309503
10
143.70000000000002
20
10.000000178813931
10
154.90000000000003
20
10.000000178813931
42
0.41421356237309503
10
155.60000000000002
20
10.70000017881393
10
155.60000000000002
20
18.20000017881393
42
0.41421356237309503
0
LWPOLYLINE
5
102
100
AcDbEntity
8
0
100
AcDbPolyline
90
4
70
1
43
0.0
10
170.0000021606684
20
10.000000014901161
10
170.0000021606684
20
18.000000014901161
10
180.0000021606684
20
18.000000014901161
10
180.0000021606684
20
10.000000014901161
0
LWPOLYLINE
5
103
100
AcDbEntity
8
0
100
AcDbPolyline
90
4
70
1
43
0.0
10
159.00000231713057
20
9.0000001341104507
10
159.00000231713057
20
6.8840001341104511
10
169.00000231713057
20
6.8840001341104511
10
169.00000231713057
20
9.0000001341104507
0
LWPOLYLINE
5
104
100
AcDbEntity
8
0
100
AcDbPolyline
90
8
70
1
43
0.0
10
141.60000000000002
20
10.70000017881393
10
141.60000000000002
20
18.20000017881393
42
0.41421356237309503
10
140.90000000000001
20
18.900000178813933
10
129.70000000000002
20
18.900000178813929
42
0.41421356237309503
10
129.00000000000003
20
18.20000017881393
10
129.00000000000003
20
10.70000017881393
42
0.41421356237309503
10
129.70000000000002
20
10.000000178813931
10
140.90000000000001
20
10.000000178813931
42
0.41421356237309503
0
LWPOLYLINE
5
105
100
AcDbEntity
8
0
100
AcDbPolyline
90
4
70
1
43
0.0
10
180.00000231713059
20
6.8840001341104511
10
180.00000231713059
20
9.0000001341104507
10
170.00000231713059
20
9.0000001341104507
10
170.00000231713059
20
6.8840001341104511
0
LWPOLYLINE
5
106
100
AcDbEntity
8
0
100
AcDbPolyline
90
4
70
1
43
0.0
10
170.00000231713059
20
1.0000000149011612
10
170.00000231713059
20
6.5840000149011608
10
180.00000231713059
20
6.5840000149011608
10
180.00000231713059
20
1.0000000149011612
0
LWPOLYLINE
5
107
100
AcDbEntity
8
0
100
AcDbPolyline
90
4
70
1
43
0.0
10
159.0000021606684
20
18.000000014901161
10
169.0000021606684
20
18.000000014901161
10
169.0000021606684
20
10.000000014901161
10
159.0000021606684
20
10.000000014901161
0
LWPOLYLINE
5
108
100
AcDbEntity
8
0
100
AcDbPolyline
90
8
70
1
43
0.0
10
71
20
10.699899402742348
10
71.000000000000014
20
18.199899402742346
42
-0.41421356237309503
10
71.700000000000003
20
18.899899402742346
10
82.199999999999989
20
18.899899402742349
42
-0.41421356237309503
10
82.899999999999991
20
18.199899402742346
10
82.900000000000034
20
10.699899402742348
42
-0.41421356237310991
10
82.199999999999989
20
9.9998994027423489
10
71.700000000000003
20
9.9998994027423471
42
-0.41421356237309415
0
LWPOLYLINE
5
109
100
AcDbEntity
8
0
100
AcDbPolyline
90
4
70
1
43
0.0
10
144.00000001490119
20
9.0000000149011612
10
144.00000001490119
20
1.0000000149011612
10
133.00000001490122
20
1.0000000149011612
10
133.00000001490122
20
9.0000000149011612
0
LWPOLYLINE
5
110
100
AcDbEntity
8
0
100
AcDbPolyline
90
8
70
1
43
0.0
10
84.700000000000003
20
9.9998994027423471
42
-0.41421356237309415
10
84
20
10.699899402742348
10
84
20
18.199899402742346
42
-0.41421356237309503
10
84.700000000000003
20
18.899899402742346
10
95.199999999999989
20
18.899899402742349
42
-0.41421356237309503
10
95.900000000000006
20
18.199899402742346
10
95.900000000000034
20
10.699899402742348
42
-0.41421356237310991
10
95.199999999999989
20
9.9998994027423489
0
LWPOLYLINE
5
111
100
AcDbEntity
8
0
100
AcDbPolyline
90
8
70
1
43
0.0
10
97.700000000000017
20
9.9998994027423471
42
-0.41421356237309415
10
97.000000000000014
20
10.699899402742348
10
97.000000000000014
20
18.199899402742346
42
-0.41421356237309503
10
97.700000000000017
20
18.899899402742346
10
108.2
20
18.899899402742349
42
-0.41421356237309503
10
108.90000000000001
20
18.199899402742346
10
108.90000000000003
20
10.699899402742348
42
-0.41421356237310991
10
108.2
20
9.9998994027423489
0
LWPOLYLINE
5
112
100
AcDbEntity
8
0
100
AcDbPolyline
90
4
70
1
43
0.0
10
85.00000001490119
20
9.0000000149011612
10
96.000000014901175
20
9.0000000149011612
10
96.000000014901175
20
1.0000000149011612
10
85.00000001490119
20
1.0000000149011612
0
LWPOLYLINE
5
113
100
AcDbEntity
8
0
100
AcDbPolyline
90
4
70
1
43
0.0
10
84.000000014901161
20
9.0000000149011612
10
84.000000014901161
20
1.0000000149011612
10
73.000000014901175
20
1.0000000149011612
10
73.000000014901175
20
9.0000000149011612
0
LWPOLYLINE
5
114
100
AcDbEntity
8
0
100
AcDbPolyline
90
8
70
1
43
0.0
10
115.7
20
10.000000178813945
42
-0.41421356237309503
10
115.00000000000001
20
10.70000017881393
10
115
20
18.20000017881393
42
-0.41421356237309503
10
115.7
20
18.900000178813929
10
126.90000000000001
20
18.900000178813933
42
-0.41421356237309503
10
127.60000000000002
20
18.20000017881393
10
127.60000000000002
20
10.70000017881393
42
-0.41421356237309503
10
126.90000000000001
20
10.000000178813931
0
LWPOLYLINE
5
115
100
AcDbEntity
8
0
100
AcDbPolyline
90
4
70
1
43
0.0
10
108.00000001490119
20
1.0000000149011612
10
97.000000014901175
20
1.0000000149011612
10
97.000000014901175
20
9.0000000149011612
10
108.00000001490119
20
9.0000000149011612
0
LWPOLYLINE
5
116
100
AcDbEntity
8
0
100
AcDbPolyline
90
4
70
1
43
0.0
10
109.0000000149012
20
1.0000000149011612
10
109.0000000149012
20
9.0000000149011612
10
120.00000001490119
20
9.0000000149011612
10
120.00000001490119
20
1.0000000149011612
0
LWPOLYLINE
5
117
100
AcDbEntity
8
0
100
AcDbPolyline
90
4
70
1
43
0.0
10
121.00000001490118
20
1.0000000149011612
10
121.00000001490118
20
9.0000000149011612
10
132.00000001490119
20
9.0000000149011612
10
132.00000001490119
20
1.0000000149011612
0
LWPOLYLINE
5
118
100
AcDbEntity
8
0
100
AcDbPolyline
90
4
70
1
43
0.0
10
70.000000014901161
20
10.000000149011612
10
64.000000014901161
20
10.000000149011612
10
64.000000014901161
20
18.000000149011612
10
70.000000014901161
20
18.000000149011612
0
LWPOLYLINE
5
119
100
AcDbEntity
8
0
100
AcDbPolyline
90
4
70
1
43
0.0
10
60.000000014901161
20
9.0000000149011612
10
60.000000014901161
20
1.0000000149011612
10
49.000000014901168
20
1.0000000149011612
10
49.000000014901168
20
9.0000000149011612
0
LWPOLYLINE
5
120
100
AcDbEntity
8
0
100
AcDbPolyline
90
4
70
1
43
0.0
10
36.000000014901168
20
1.0000000149011612
10
25.000000014901165
20
1.0000000149011612
10
25.000000014901165
20
9.0000000149011612
10
36.000000014901168
20
9.0000000149011612
0
LWPOLYLINE
5
121
100
AcDbEntity
8
0
100
AcDbPolyline
90
4
70
1
43
0.0
10
36.000000014901168
20
10.000000149011612
10
36.000000014901168
20
18.000000149011612
10
42.000000014901168
20
18.000000149011612
10
42.000000014901168
20
10.000000149011612
0
LWPOLYLINE
5
122
100
AcDbEntity
8
0
100
AcDbPolyline
90
4
70
1
43
0.0
10
37.000000014901168
20
9.0000000149011612
10
48.000000014901175
20
9.0000000149011612
10
48.000000014901175
20
1.0000000149011612
10
37.000000014901168
20
1.0000000149011612
0
LWPOLYLINE
5
123
100
AcDbEntity
8
0
100
AcDbPolyline
90
4
70
1
43
0.0
10
43.000000014901161
20
18.000000149011612
10
49.000000014901168
20
18.000000149011612
10
49.000000014901168
20
10.000000149011612
10
43.000000014901161
20
10.000000149011612
0
LWPOLYLINE
5
124
100
AcDbEntity
8
0
100
AcDbPolyline
90
4
70
1
43
0.0
10
22.000000014901161
20
10.000000149011612
10
22.000000014901161
20
18.000000149011612
10
28.000000014901161
20
18.000000149011612
10
28.000000014901161
20
10.000000149011612
0
LWPOLYLINE
5
125
100
AcDbEntity
8
0
100
AcDbPolyline
90
4
70
1
43
0.0
10
7.0000000149011621
20
18.000000149011612
10
7.0000000149011621
20
10.000000149011612
10
1.0000000149011612
20
10.000000149011612
10
1.0000000149011612
20
18.000000149011612
0
LWPOLYLINE
5
126
100
AcDbEntity
8
0
100
AcDbPolyline
90
4
70
1
43
0.0
10
50.000000014901161
20
10.000000149011612
10
50.000000014901161
20
18.000000149011612
10
56.000000014901161
20
18.000000149011612
10
56.000000014901161
20
10.000000149011612
0
LWPOLYLINE
5
127
100
AcDbEntity
8
0
100
AcDbPolyline
90
4
70
1
43
0.0
10
21.000000014901161
20
18.000000149011612
10
21.000000014901161
20
10.000000149011612
10
15.000000014901163
20
10.000000149011612
10
15.000000014901163
20
18.000000149011612
0
LWPOLYLINE
5
128
100
AcDbEntity
8
0
100
AcDbPolyline
90
4
70
1
43
0.0
10
35.000000014901161
20
10.000000149011612
10
29.000000014901165
20
10.000000149011612
10
29.000000014901165
20
18.000000149011612
10
35.000000014901161
20
18.000000149011612
0
LWPOLYLINE
5
129
100
AcDbEntity
8
0
100
AcDbPolyline
90
4
70
1
43
0.0
10
13.000000014901163
20
9.0000000149011612
10
24.000000014901165
20
9.0000000149011612
10
24.000000014901165
20
1.0000000149011612
10
13.000000014901163
20
1.0000000149011612
0
LWPOLYLINE
5
130
100
AcDbEntity
8
0
100
AcDbPolyline
90
4
70
1
43
0.0
10
1.0000000149011612
20
1.0000000149011612
10
1.0000000149011612
20
9.0000000149011612
10
12.000000014901161
20
9.0000000149011612
10
12.000000014901161
20
1.0000000149011612
0
LWPOLYLINE
5
131
100
AcDbEntity
8
0
100
AcDbPolyline
90
4
70
1
43
0.0
10
8.0000000149011612
20
18.000000149011612
10
14.000000014901165
20
18.000000149011612
10
14.000000014901165
20
10.000000149011612
10
8.0000000149011612
20
10.000000149011612
0
LWPOLYLINE
5
132
100
AcDbEntity
8
0
100
AcDbPolyline
90
4
70
1
43
0.0
10
61.000000014901168
20
1.0000000149011612
10
61.000000014901168
20
9.0000000149011612
10
72.000000014901175
20
9.0000000149011612
10
72.000000014901175
20
1.0000000149011612
0
LWPOLYLINE
5
133
100
AcDbEntity
8
0
100
AcDbPolyline
90
4
70
1
43
0.0
10
57.000000014901168
20
10.000000149011612
10
57.000000014901168
20
18.000000149011612
10
63.000000014901175
20
18.000000149011612
10
63.000000014901175
20
10.000000149011612
0
LWPOLYLINE
5
134
100
AcDbEntity
8
0
100
AcDbPolyline
90
4
70
1
43
0.0
10
169.00000231713057
20
21.000000014901161
10
159.00000231713057
20
21.000000014901161
10
159.00000231713057
20
26.584000014901157
10
169.00000231713057
20
26.584000014901157
0
LWPOLYLINE
5
135
100
AcDbEntity
8
0
100
AcDbPolyline
90
8
70
1
43
0.0
10
154.90000000000003
20
38.900000178813926
10
143.70000000000002
20
38.900000178813926
42
0.41421356237309503
10
143.00000000000003
20
38.20000017881393
10
143.00000000000003
20
30.70000017881393
42
0.41421356237309503
10
143.70000000000002
20
30.000000178813934
10
154.90000000000003
20
30.000000178813934
42
0.41421356237309503
10
155.60000000000002
20
30.70000017881393
10
155.60000000000002
20
38.20000017881393
42
0.41421356237309503
0
LWPOLYLINE
5
136
100
AcDbEntity
8
0
100
AcDbPolyline
90
4
70
1
43
0.0
10
170.0000021606684
20
30.000000014901161
10
170.0000021606684
20
38.000000014901161
10
180.0000021606684
20
38.000000014901161
10
180.0000021606684
20
30.000000014901161
0
LWPOLYLINE
5
137
100
AcDbEntity
8
0
100
AcDbPolyline
90
4
70
1
43
0.0
10
159.00000231713057
20
29.000000134110451
10
159.00000231713057
20
26.884000134110451
10
169.00000231713057
20
26.884000134110451
10
169.00000231713057
20
29.000000134110451
0
LWPOLYLINE
5
138
100
AcDbEntity
8
0
100
AcDbPolyline
90
8
70
1
43
0.0
10
141.60000000000002
20
30.70000017881393
10
141.60000000000002
20
38.20000017881393
42
0.41421356237309503
10
140.90000000000001
20
38.900000178813926
10
129.70000000000002
20
38.900000178813926
42
0.41421356237309503
10
129.00000000000003
20
38.20000017881393
10
129.00000000000003
20
30.70000017881393
42
0.41421356237309503
10
129.70000000000002
20
30.000000178813934
10
140.90000000000001
20
30.000000178813934
42
0.41421356237309503
0
LWPOLYLINE
5
139
100
AcDbEntity
8
0
100
AcDbPolyline
90
4
70
1
43
0.0
10
180.00000231713059
20
26.884000134110451
10
180.00000231713059
20
29.000000134110451
10
170.00000231713059
20
29.000000134110451
10
170.00000231713059
20
26.884000134110451
0
LWPOLYLINE
5
140
100
AcDbEntity
8
0
100
AcDbPolyline
90
4
70
1
43
0.0
10
170.00000231713059
20
21.000000014901161
10
170.00000231713059
20
26.584000014901157
10
180.00000231713059
20
26.584000014901157
10
180.00000231713059
20
21.000000014901161
0
LWPOLYLINE
5
141
100
AcDbEntity
8
0
100
AcDbPolyline
90
4
70
1
43
0.0
10
159.0000021606684
20
38.000000014901161
10
169.0000021606684
20
38.000000014901161
10
169.0000021606684
20
30.000000014901161
10
159.0000021606684
20
30.000000014901161
0
LWPOLYLINE
5
142
100
AcDbEntity
8
0
100
AcDbPolyline
90
8
70
1
43
0.0
10
71
20
30.69989940274235
10
71.000000000000014
20
38.199899402742346
42
-0.41421356237309503
10
71.700000000000003
20
38.899899402742342
10
82.199999999999989
20
38.899899402742349
42
-0.41421356237309503
10
82.899999999999991
20
38.199899402742346
10
82.900000000000034
20
30.69989940274235
42
-0.41421356237310991
10
82.199999999999989
20
29.999899402742347
10
71.700000000000003
20
29.999899402742347
42
-0.41421356237309503
0
LWPOLYLINE
5
143
100
AcDbEntity
8
0
100
AcDbPolyline
90
4
70
1
43
0.0
10
144.00000001490119
20
29.000000014901161
10
144.00000001490119
20
21.000000014901161
10
133.00000001490122
20
21.000000014901161
10
133.00000001490122
20
29.000000014901161
0
LWPOLYLINE
5
144
100
AcDbEntity
8
0
100
AcDbPolyline
90
8
70
1
43
0.0
10
84.700000000000003
20
29.999899402742347
42
-0.41421356237309503
10
84
20
30.69989940274235
10
84.000000000000028
20
38.199899402742346
42
-0.41421356237309503
10
84.700000000000003
20
38.899899402742342
10
95.199999999999989
20
38.899899402742349
42
-0.41421356237309503
10
95.900000000000006
20
38.199899402742346
10
95.900000000000034
20
30.69989940274235
42
-0.41421356237310991
10
95.199999999999989
20
29.999899402742347
0
LWPOLYLINE
5
145
100
AcDbEntity
8
0
100
AcDbPolyline
90
8
70
1
43
0.0
10
97.700000000000017
20
29.999899402742347
42
-0.41421356237309503
10
97.000000000000014
20
30.69989940274235
10
97.000000000000028
20
38.199899402742346
42
-0.41421356237309503
10
97.700000000000017
20
38.899899402742342
10
108.2
20
38.899899402742349
42
-0.41421356237309503
10
108.90000000000001
20
38.199899402742346
10
108.90000000000003
20
30.69989940274235
42
-0.41421356237310991
10
108.2
20
29.999899402742347
0
LWPOLYLINE
5
146
100
AcDbEntity
8
0
100
AcDbPolyline
90
4
70
1
43
0.0
10
85.00000001490119
20
29.000000014901161
10
96.000000014901175
20
29.000000014901161
10
96.000000014901175
20
21.000000014901161
10
85.00000001490119
20
21.000000014901161
0
LWPOLYLINE
5
147
100
AcDbEntity
8
0
100
AcDbPolyline
90
4
70
1
43
0.0
10
84.000000014901161
20
29.000000014901161
10
84.000000014901161
20
21.000000014901161
10
73.000000014901175
20
21.000000014901161
10
73.000000014901175
20
29.000000014901161
0
LWPOLYLINE
5
148
100
AcDbEntity
8
0
100
AcDbPolyline
90
8
70
1
43
0.0
10
115.7
20
30.000000178813945
42
-0.41421356237309503
10
115.00000000000001
20
30.70000017881393
10
115
20
38.20000017881393
42
-0.41421356237309503
10
115.7
20
38.900000178813926
10
126.90000000000001
20
38.900000178813933
42
-0.41421356237309503
10
127.60000000000002
20
38.20000017881393
10
127.60000000000002
20
30.70000017881393
42
-0.41421356237309503
10
126.90000000000001
20
30.000000178813934
0
LWPOLYLINE
5
149
100
AcDbEntity
8
0
100
AcDbPolyline
90
4
70
1
43
0.0
10
108.00000001490119
20
21.000000014901161
10
97.000000014901175
20
21.000000014901161
10
97.000000014901175
20
29.000000014901161
10
108.00000001490119
20
29.000000014901161
0
LWPOLYLINE
5
150
100
AcDbEntity
8
0
100
AcDbPolyline
90
4
70
1
43
0.0
10
109.0000000149012
20
21.000000014901161
10
109.0000000149012
20
29.000000014901161
10
120.00000001490119
20
29.000000014901161
10
120.00000001490119
20
21.000000014901161
0
LWPOLYLINE
5
151
100
AcDbEntity
8
0
100
AcDbPolyline
90
4
70
1
43
0.0
10
121.00000001490118
20
21.000000014901161
10
121.00000001490118
20
29.000000014901161
10
132.00000001490119
20
29.000000014901161
10
132.00000001490119
20
21.000000014901161
0
LWPOLYLINE
5
152
100
AcDbEntity
8
0
100
AcDbPolyline
90
4
70
1
43
0.0
10
70.000000014901161
20
30.000000149011612
10
64.000000014901161
20
30.000000149011612
10
64.000000014901161
20
38.000000149011612
10
70.000000014901161
20
38.000000149011612
0
LWPOLYLINE
5
153
100
AcDbEntity
8
0
100
AcDbPolyline
90
4
70
1
43
0.0
10
60.000000014901161
20
29.000000014901161
10
60.000000014901161
20
21.000000014901161
10
49.000000014901168
20
21.000000014901161
10
49.000000014901168
20
29.000000014901161
0
LWPOLYLINE
5
154
100
AcDbEntity
8
0
100
AcDbPolyline
90
4
70
1
43
0.0
10
36.000000014901168
20
21.000000014901161
10
25.000000014901165
20
21.000000014901161
10
25.000000014901165
20
29.000000014901161
10
36.000000014901168
20
29.000000014901161
0
LWPOLYLINE
5
155
100
AcDbEntity
8
0
100
AcDbPolyline
90
4
70
1
43
0.0
10
36.000000014901168
20
30.000000149011612
10
36.000000014901168
20
38.000000149011612
10
42.000000014901168
20
38.000000149011612
10
42.000000014901168
20
30.000000149011612
0
LWPOLYLINE
5
156
100
AcDbEntity
8
0
100
AcDbPolyline
90
4
70
1
43
0.0
10
37.000000014901168
20
29.000000014901161
10
48.000000014901175
20
29.000000014901161
10
48.000000014901175
20
21.000000014901161
10
37.000000014901168
20
21.000000014901161
0
LWPOLYLINE
5
157
100
AcDbEntity
8
0
100
AcDbPolyline
90
4
70
1
43
0.0
10
43.000000014901161
20
38.000000149011612
10
49.000000014901168
20
38.000000149011612
10
49.000000014901168
20
30.000000149011612
10
43.000000014901161
20
30.000000149011612
0
LWPOLYLINE
5
158
100
AcDbEntity
8
0
100
AcDbPolyline
90
4
70
1
43
0.0
10
22.000000014901161
20
30.000000149011612
10
22.000000014901161
20
38.000000149011612
10
28.000000014901161
20
38.000000149011612
10
28.000000014901161
20
30.000000149011612
0
LWPOLYLINE
5
159
100
AcDbEntity
8
0
100
AcDbPolyline
90
4
70
1
43
0.0
10
7.0000000149011621
20
38.000000149011612
10
7.0000000149011621
20
30.000000149011612
10
1.0000000149011612
20
30.000000149011612
10
1.0000000149011612
20
38.000000149011612
0
LWPOLYLINE
5
160
100
AcDbEntity
8
0
100
AcDbPolyline
90
4
70
1
43
0.0
10
50.000000014901161
20
30.000000149011612
10
50.000000014901161
20
38.000000149011612
10
56.000000014901161
20
38.000000149011612
10
56.000000014901161
20
30.000000149011612
0
LWPOLYLINE
5
161
100
AcDbEntity
8
0
100
AcDbPolyline
90
4
70
1
43
0.0
10
21.000000014901161
20
38.000000149011612
10
21.000000014901161
20
30.000000149011612
10
15.000000014901163
20
30.000000149011612
10
15.000000014901163
20
38.000000149011612
0
LWPOLYLINE
5
162
100
AcDbEntity
8
0
100
AcDbPolyline
90
4
70
1
43
0.0
10
35.000000014901161
20
30.000000149011612
10
29.000000014901165
20
30.000000149011612
10
29.000000014901165
20
38.000000149011612
10
35.000000014901161
20
38.000000149011612
0
LWPOLYLINE
5
163
100
AcDbEntity
8
0
100
AcDbPolyline
90
4
70
1
43
0.0
10
13.000000014901163
20
29.000000014901161
10
24.000000014901165
20
29.000000014901161
10
24.000000014901165
20
21.000000014901161
10
13.000000014901163
20
21.000000014901161
0
LWPOLYLINE
5
164
100
AcDbEntity
8
0
100
AcDbPolyline
90
4
70
1
43
0.0
10
1.0000000149011612
20
21.000000014901161
10
1.0000000149011612
20
29.000000014901161
10
12.000000014901161
20
29.000000014901161
10
12.000000014901161
20
21.000000014901161
0
LWPOLYLINE
5
165
100
AcDbEntity
8
0
100
AcDbPolyline
90
4
70
1
43
0.0
10
8.0000000149011612
20
38.000000149011612
10
14.000000014901165
20
38.000000149011612
10
14.000000014901165
20
30.000000149011612
10
8.0000000149011612
20
30.000000149011612
0
LWPOLYLINE
5
166
100
AcDbEntity
8
0
100
AcDbPolyline
90
4
70
1
43
0.0
10
61.000000014901168
20
21.000000014901161
10
61.000000014901168
20
29.000000014901161
10
72.000000014901175
20
29.000000014901161
10
72.000000014901175
20
21.000000014901161
0
LWPOLYLINE
5
167
100
AcDbEntity
8
0
100
AcDbPolyline
90
4
70
1
43
0.0
10
57.000000014901168
20
30.000000149011612
10
57.000000014901168
20
38.000000149011612
10
63.000000014901175
20
38.000000149011612
10
63.000000014901175
20
30.000000149011612
0
LWPOLYLINE
5
168
100
AcDbEntity
8
0
100
AcDbPolyline
90
4
70
1
43
0.0
10
169.00000231713057
20
41.000000014901161
10
159.00000231713057
20
41.000000014901161
10
159.00000231713057
20
46.584000014901157
10
169.00000231713057
20
46.584000014901157
0
LWPOLYLINE
5
169
100
AcDbEntity
8
0
100
AcDbPolyline
90
8
70
1
43
0.0
10
154.90000000000003
20
58.900000178813926
10
143.70000000000002
20
58.900000178813926
42
0.41421356237309503
10
143.00000000000003
20
58.200000178813923
10
143.00000000000003
20
50.700000178813923
42
0.41421356237309503
10
143.70000000000002
20
50.000000178813934
10
154.90000000000003
20
50.000000178813934
42
0.41421356237309503
10
155.60000000000002
20
50.700000178813923
10
155.60000000000002
20
58.200000178813923
42
0.41421356237309503
0
LWPOLYLINE
5
170
100
AcDbEntity
8
0
100
AcDbPolyline
90
4
70
1
43
0.0
10
170.0000021606684
20
50.000000014901161
10
170.0000021606684
20
58.000000014901161
10
180.0000021606684
20
58.000000014901161
10
180.0000021606684
20
50.000000014901161
0
LWPOLYLINE
5
171
100
AcDbEntity
8
0
100
AcDbPolyline
90
4
70
1
43
0.0
10
159.00000231713057
20
49.000000134110451
10
159.00000231713057
20
46.884000134110451
10
169.00000231713057
20
46.884000134110451
10
169.00000231713057
20
49.000000134110451
0
LWPOLYLINE
5
172
100
AcDbEntity
8
0
100
AcDbPolyline
90
8
70
1
43
0.0
10
141.60000000000002
20
50.700000178813923
10
141.60000000000002
20
58.200000178813923
42
0.41421356237309503
10
140.90000000000001
20
58.900000178813926
10
129.70000000000002
20
58.900000178813926
42
0.41421356237309503
10
129.00000000000003
20
58.200000178813923
10
129.00000000000003
20
50.700000178813923
42
0.41421356237309503
10
129.70000000000002
20
50.000000178813934
10
140.90000000000001
20
50.000000178813934
42
0.41421356237309503
0
LWPOLYLINE
5
173
100
AcDbEntity
8
0
100
AcDbPolyline
90
4
70
1
43
0.0
10
180.00000231713059
20
46.884000134110451
10
180.00000231713059
20
49.000000134110451
10
170.00000231713059
20
49.000000134110451
10
170.00000231713059
20
46.884000134110451
0
LWPOLYLINE
5
174
100
AcDbEntity
8
0
100
AcDbPolyline
90
4
70
1
43
0.0
10
170.00000231713059
20
41.000000014901161
10
170.00000231713059
20
46.584000014901157
10
180.00000231713059
20
46.584000014901157
10
180.00000231713059
20
41.000000014901161
0
LWPOLYLINE
5
175
100
AcDbEntity
8
0
100
AcDbPolyline
90
4
70
1
43
0.0
10
159.0000021606684
20
58.000000014901161
10
169.0000021606684
20
58.000000014901161
10
169.0000021606684
20
50.000000014901161
10
159.0000021606684
20
50.000000014901161
0
LWPOLYLINE
5
176
100
AcDbEntity
8
0
100
AcDbPolyline
90
8
70
1
43
0.0
10
71
20
50.699899402742346
10
71.000000000000014
20
58.199899402742346
42
-0.41421356237309503
10
71.700000000000003
20
58.899899402742342
10
82.199999999999989
20
58.899899402742349
42
-0.41421356237309503
10
82.899999999999991
20
58.199899402742346
10
82.900000000000034
20
50.699899402742346
42
-0.41421356237310991
10
82.199999999999989
20
49.999899402742344
10
71.700000000000003
20
49.999899402742344
42
-0.41421356237309503
0
LWPOLYLINE
5
177
100
AcDbEntity
8
0
100
AcDbPolyline
90
4
70
1
43
0.0
10
144.00000001490119
20
49.000000014901161
10
144.00000001490119
20
41.000000014901161
10
133.00000001490122
20
41.000000014901161
10
133.00000001490122
20
49.000000014901161
0
LWPOLYLINE
5
178
100
AcDbEntity
8
0
100
AcDbPolyline
90
8
70
1
43
0.0
10
84.700000000000003
20
49.999899402742344
42
-0.41421356237309503
10
84
20
50.699899402742346
10
84.000000000000028
20
58.199899402742346
42
-0.41421356237309503
10
84.700000000000003
20
58.899899402742342
10
95.199999999999989
20
58.899899402742349
42
-0.41421356237309503
10
95.900000000000006
20
58.199899402742346
10
95.900000000000034
20
50.699899402742346
42
-0.41421356237310991
10
95.199999999999989
20
49.999899402742344
0
LWPOLYLINE
5
179
100
AcDbEntity
8
0
100
AcDbPolyline
90
8
70
1
43
0.0
10
97.700000000000017
20
49.999899402742344
42
-0.41421356237309503
10
97.000000000000014
20
50.699899402742346
10
97.000000000000028
20
58.199899402742346
42
-0.41421356237309503
10
97.700000000000017
20
58.899899402742342
10
108.2
20
58.899899402742349
42
-0.41421356237309503
10
108.90000000000001
20
58.199899402742346
10
108.90000000000003
20
50.699899402742346
42
-0.41421356237310991
10
108.2
20
49.999899402742344
0
LWPOLYLINE
5
180
100
AcDbEntity
8
0
100
AcDbPolyline
90
4
70
1
43
0.0
10
85.00000001490119
20
49.000000014901161
10
96.000000014901175
20
49.000000014901161
10
96.000000014901175
20
41.000000014901161
10
85.00000001490119
20
41.000000014901161
0
LWPOLYLINE
5
181
100
AcDbEntity
8
0
100
AcDbPolyline
90
4
70
1
43
0.0
10
84.000000014901161
20
49.000000014901161
10
84.000000014901161
20
41.000000014901161
10
73.000000014901175
20
41.000000014901161
10
73.000000014901175
20
49.000000014901161
0
LWPOLYLINE
5
182
100
AcDbEntity
8
0
100
AcDbPolyline
90
8
70
1
43
0.0
10
115.7
20
50.000000178813941
42
-0.41421356237309503
10
115.00000000000001
20
50.700000178813923
10
115
20
58.200000178813923
42
-0.41421356237309503
10
115.7
20
58.900000178813926
10
126.90000000000001
20
58.900000178813926
42
-0.41421356237309503
10
127.60000000000002
20
58.200000178813923
10
127.60000000000002
20
50.700000178813923
42
-0.41421356237309503
10
126.90000000000001
20
50.000000178813934
0
LWPOLYLINE
5
183
100
AcDbEntity
8
0
100
AcDbPolyline
90
4
70
1
43
0.0
10
108.00000001490119
20
41.000000014901161
10
97.000000014901175
20
41.000000014901161
10
97.000000014901175
20
49.000000014901161
10
108.00000001490119
20
49.000000014901161
0
LWPOLYLINE
5
184
100
AcDbEntity
8
0
100
AcDbPolyline
90
4
70
1
43
0.0
10
109.0000000149012
20
41.000000014901161
10
109.0000000149012
20
49.000000014901161
10
120.00000001490119
20
49.000000014901161
10
120.00000001490119
20
41.000000014901161
0
LWPOLYLINE
5
185
100
AcDbEntity
8
0
100
AcDbPolyline
90
4
70
1
43
0.0
10
121.00000001490118
20
41.000000014901161
10
121.00000001490118
20
49.000000014901161
10
132.00000001490119
20
49.000000014901161
10
132.00000001490119
20
41.000000014901161
0
LWPOLYLINE
5
186
100
AcDbEntity
8
0
100
AcDbPolyline
90
4
70
1
43
0.0
10
70.000000014901161
20
50.000000149011612
10
64.000000014901161
20
50.000000149011612
10
64.000000014901161
20
58.000000149011612
10
70.000000014901161
20
58.000000149011612
0
LWPOLYLINE
5
187
100
AcDbEntity
8
0
100
AcDbPolyline
90
4
70
1
43
0.0
10
60.000000014901161
20
49.000000014901161
10
60.000000014901161
20
41.000000014901161
10
49.000000014901168
20
41.000000014901161
10
49.000000014901168
20
49.000000014901161
0
LWPOLYLINE
5
188
100
AcDbEntity
8
0
100
AcDbPolyline
90
4
70
1
43
0.0
10
36.000000014901168
20
41.000000014901161
10
25.000000014901165
20
41.000000014901161
10
25.000000014901165
20
49.000000014901161
10
36.000000014901168
20
49.000000014901161
0
LWPOLYLINE
5
189
100
AcDbEntity
8
0
100
AcDbPolyline
90
4
70
1
43
0.0
10
36.000000014901168
20
50.000000149011612
10
36.000000014901168
20
58.000000149011612
10
42.000000014901168
20
58.000000149011612
10
42.000000014901168
20
50.000000149011612
0
LWPOLYLINE
5
190
100
AcDbEntity
8
0
100
AcDbPolyline
90
4
70
1
43
0.0
10
37.000000014901168
20
49.000000014901161
10
48.000000014901175
20
49.000000014901161
10
48.000000014901175
20
41.000000014901161
10
37.000000014901168
20
41.000000014901161
0
LWPOLYLINE
5
191
100
AcDbEntity
8
0
100
AcDbPolyline
90
4
70
1
43
0.0
10
43.000000014901161
20
58.000000149011612
10
49.000000014901168
20
58.000000149011612
10
49.000000014901168
20
50.000000149011612
10
43.000000014901161
20
50.000000149011612
0
LWPOLYLINE
5
192
100
AcDbEntity
8
0
100
AcDbPolyline
90
4
70
1
43
0.0
10
22.000000014901161
20
50.000000149011612
10
22.000000014901161
20
58.000000149011612
10
28.000000014901161
20
58.000000149011612
10
28.000000014901161
20
50.000000149011612
0
LWPOLYLINE
5
193
100
AcDbEntity
8
0
100
AcDbPolyline
90
4
70
1
43
0.0
10
7.0000000149011621
20
58.000000149011612
10
7.0000000149011621
20
50.000000149011612
10
1.0000000149011612
20
50.000000149011612
10
1.0000000149011612
20
58.000000149011612
0
LWPOLYLINE
5
194
100
AcDbEntity
8
0
100
AcDbPolyline
90
4
70
1
43
0.0
10
50.000000014901161
20
50.000000149011612
10
50.000000014901161
20
58.000000149011612
10
56.000000014901161
20
58.000000149011612
10
56.000000014901161
20
50.000000149011612
0
LWPOLYLINE
5
195
100
AcDbEntity
8
0
100
AcDbPolyline
90
4
70
1
43
0.0
10
21.000000014901161
20
58.000000149011612
10
21.000000014901161
20
50.000000149011612
10
15.000000014901163
20
50.000000149011612
10
15.000000014901163
20
58.000000149011612
0
LWPOLYLINE
5
196
100
AcDbEntity
8
0
100
AcDbPolyline
90
4
70
1
43
0.0
10
35.000000014901161
20
50.000000149011612
10
29.000000014901165
20
50.000000149011612
10
29.000000014901165
20
58.000000149011612
10
35.000000014901161
20
58.000000149011612
0
LWPOLYLINE
5
197
100
AcDbEntity
8
0
100
AcDbPolyline
90
4
70
1
43
0.0
10
13.000000014901163
20
49.000000014901161
10
24.000000014901165
20
49.000000014901161
10
24.000000014901165
20
41.000000014901161
10
13.000000014901163
20
41.000000014901161
0
LWPOLYLINE
5
198
100
AcDbEntity
8
0
100
AcDbPolyline
90
4
70
1
43
0.0
10
1.0000000149011612
20
41.000000014901161
10
1.0000000149011612
20
49.000000014901161
10
12.000000014901161
20
49.000000014901161
10
12.000000014901161
20
41.000000014901161
0
LWPOLYLINE
5
199
100
AcDbEntity
8
0
100
AcDbPolyline
90
4
70
1
43
0.0
10
8.0000000149011612
20
58.000000149011612
10
14.000000014901165
20
58.000000149011612
10
14.000000014901165
20
50.000000149011612
10
8.0000000149011612
20
50.000000149011612
0
LWPOLYLINE
5
200
100
AcDbEntity
8
0
100
AcDbPolyline
90
4
70
1
43
0.0
10
61.000000014901168
20
41.000000014901161
10
61.000000014901168
20
49.000000014901161
10
72.000000014901175
20
49.000000014901161
10
72.000000014901175
20
41.000000014901161
0
LWPOLYLINE
5
201
100
AcDbEntity
8
0
100
AcDbPolyline
90
4
70
1
43
0.0
10
57.000000014901168
20
50.000000149011612
10
57.000000014901168
20
58.000000149011612
10
63.000000014901175
20
58.000000149011612
10
63.000000014901175
20
50.000000149011612
0
LWPOLYLINE
5
202
100
AcDbEntity
8
0
100
AcDbPolyline
90
4
70
1
43
0.0
10
169.00000231713057
20
61.000000014901161
10
159.00000231713057
20
61.000000014901161
10
159.00000231713057
20
66.584000014901164
10
169.00000231713057
20
66.584000014901164
0
LWPOLYLINE
5
203
100
AcDbEntity
8
0
100
AcDbPolyline
90
8
70
1
43
0.0
10
154.90000000000003
20
78.900000178813926
10
143.70000000000002
20
78.900000178813926
42
0.41421356237309503
10
143.00000000000003
20
78.200000178813923
10
143.00000000000003
20
70.700000178813923
42
0.41421356237309503
10
143.70000000000002
20
70.000000178813934
10
154.90000000000003
20
70.000000178813934
42
0.41421356237309503
10
155.60000000000002
20
70.700000178813923
10
155.60000000000002
20
78.200000178813923
42
0.41421356237309503
0
LWPOLYLINE
5
204
100
AcDbEntity
8
0
100
AcDbPolyline
90
4
70
1
43
0.0
10
170.0000021606684
20
70.000000014901161
10
170.0000021606684
20
78.000000014901161
10
180.0000021606684
20
78.000000014901161
10
180.0000021606684
20
70.000000014901161
0
LWPOLYLINE
5
205
100
AcDbEntity
8
0
100
AcDbPolyline
90
4
70
1
43
0.0
10
159.00000231713057
20
69.000000134110451
10
159.00000231713057
20
66.884000134110451
10
169.00000231713057
20
66.884000134110451
10
169.00000231713057
20
69.000000134110451
0
LWPOLYLINE
5
206
100
AcDbEntity
8
0
100
AcDbPolyline
90
8
70
1
43
0.0
10
141.60000000000002
20
70.700000178813923
10
141.60000000000002
20
78.200000178813923
42
0.41421356237309503
10
140.90000000000001
20
78.900000178813926
10
129.70000000000002
20
78.900000178813926
42
0.41421356237309503
10
129.00000000000003
20
78.200000178813923
10
129.00000000000003
20
70.700000178813923
42
0.41421356237309503
10
129.70000000000002
20
70.000000178813934
10
140.90000000000001
20
70.000000178813934
42
0.41421356237309503
0
LWPOLYLINE
5
207
100
AcDbEntity
8
0
100
AcDbPolyline
90
4
70
1
43
0.0
10
180.00000231713059
20
66.884000134110451
10
180.00000231713059
20
69.000000134110451
10
170.00000231713059
20
69.000000134110451
10
170.00000231713059
20
66.884000134110451
0
LWPOLYLINE
5
208
100
AcDbEntity
8
0
100
AcDbPolyline
90
4
70
1
43
0.0
10
170.00000231713059
20
61.000000014901161
10
170.00000231713059
20
66.584000014901164
10
180.00000231713059
20
66.584000014901164
10
180.00000231713059
20
61.000000014901161
0
LWPOLYLINE
5
209
100
AcDbEntity
8
0
100
AcDbPolyline
90
4
70
1
43
0.0
10
159.0000021606684
20
78.000000014901161
10
169.0000021606684
20
78.000000014901161
10
169.0000021606684
20
70.000000014901161
10
159.0000021606684
20
70.000000014901161
0
LWPOLYLINE
5
210
100
AcDbEntity
8
0
100
AcDbPolyline
90
8
70
1
43
0.0
10
71
20
70.699899402742346
10
71.000000000000014
20
78.199899402742346
42
-0.41421356237309503
10
71.700000000000003
20
78.899899402742349
10
82.199999999999989
20
78.899899402742349
42
-0.41421356237309503
10
82.899999999999991
20
78.199899402742346
10
82.900000000000034
20
70.699899402742346
42
-0.41421356237310991
10
82.199999999999989
20
69.999899402742344
10
71.700000000000003
20
69.999899402742344
42
-0.41421356237309503
0
LWPOLYLINE
5
211
100
AcDbEntity
8
0
100
AcDbPolyline
90
4
70
1
43
0.0
10
144.00000001490119
20
69.000000014901161
10
144.00000001490119
20
61.000000014901161
10
133.00000001490122
20
61.000000014901161
10
133.00000001490122
20
69.000000014901161
0
LWPOLYLINE
5
212
100
AcDbEntity
8
0
100
AcDbPolyline
90
8
70
1
43
0.0
10
84.700000000000003
20
69.999899402742344
42
-0.41421356237309503
10
84
20
70.699899402742346
10
84.000000000000028
20
78.199899402742346
42
-0.41421356237309503
10
84.700000000000003
20
78.899899402742349
10
95.199999999999989
20
78.899899402742349
42
-0.41421356237309503
10
95.900000000000006
20
78.199899402742346
10
95.900000000000034
20
70.699899402742346
42
-0.41421356237310991
10
95.199999999999989
20
69.999899402742344
0
LWPOLYLINE
5
213
100
AcDbEntity
8
0
100
AcDbPolyline
90
8
70
1
43
0.0
10
97.700000000000017
20
69.999899402742344
42
-0.41421356237309503
10
97.000000000000014
20
70.699899402742346
10
97.000000000000028
20
78.199899402742346
42
-0.41421356237309503
10
97.700000000000017
20
78.899899402742349
10
108.2
20
78.899899402742349
42
-0.41421356237309503
10
108.90000000000001
20
78.199899402742346
10
108.90000000000003
20
70.699899402742346
42
-0.41421356237310991
10
108.2
20
69.999899402742344
0
LWPOLYLINE
5
214
100
AcDbEntity
8
0
100
AcDbPolyline
90
4
70
1
43
0.0
10
85.00000001490119
20
69.000000014901161
10
96.000000014901175
20
69.000000014901161
10
96.000000014901175
20
61.000000014901161
10
85.00000001490119
20
61.000000014901161
0
LWPOLYLINE
5
215
100
AcDbEntity
8
0
100
AcDbPolyline
90
4
70
1
43
0.0
10
84.000000014901161
20
69.000000014901161
10
84.000000014901161
20
61.000000014901161
10
73.000000014901175
20
61.000000014901161
10
73.000000014901175
20
69.000000014901161
0
LWPOLYLINE
5
216
100
AcDbEntity
8
0
100
AcDbPolyline
90
8
70
1
43
0.0
10
115.7
20
70.000000178813934
42
-0.41421356237309503
10
115.00000000000001
20
70.700000178813923
10
115
20
78.200000178813923
42
-0.41421356237309503
10
115.7
20
78.900000178813926
10
126.90000000000001
20
78.900000178813926
42
-0.41421356237309503
10
127.60000000000002
20
78.200000178813923
10
127.60000000000002
20
70.700000178813923
42
-0.41421356237309503
10
126.90000000000001
20
70.000000178813934
0
LWPOLYLINE
5
217
100
AcDbEntity
8
0
100
AcDbPolyline
90
4
70
1
43
0.0
10
108.00000001490119
20
61.000000014901161
10
97.000000014901175
20
61.000000014901161
10
97.000000014901175
20
69.000000014901161
10
108.00000001490119
20
69.000000014901161
0
LWPOLYLINE
5
218
100
AcDbEntity
8
0
100
AcDbPolyline
90
4
70
1
43
0.0
10
109.0000000149012
20
61.000000014901161
10
109.0000000149012
20
69.000000014901161
10
120.00000001490119
20
69.000000014901161
10
120.00000001490119
20
61.000000014901161
0
LWPOLYLINE
5
219
100
AcDbEntity
8
0
100
AcDbPolyline
90
4
70
1
43
0.0
10
121.00000001490118
20
61.000000014901161
10
121.00000001490118
20
69.000000014901161
10
132.00000001490119
20
69.000000014901161
10
132.00000001490119
20
61.000000014901161
0
LWPOLYLINE
5
220
100
AcDbEntity
8
0
100
AcDbPolyline
90
4
70
1
43
0.0
10
70.000000014901161
20
70.000000149011612
10
64.000000014901161
20
70.000000149011612
10
64.000000014901161
20
78.000000149011612
10
70.000000014901161
20
78.000000149011612
0
LWPOLYLINE
5
221
100
AcDbEntity
8
0
100
AcDbPolyline
90
4
70
1
43
0.0
10
60.000000014901161
20
69.000000014901161
10
60.000000014901161
20
61.000000014901161
10
49.000000014901168
20
61.000000014901161
10
49.000000014901168
20
69.000000014901161
0
LWPOLYLINE
5
222
100
AcDbEntity
8
0
100
AcDbPolyline
90
4
70
1
43
0.0
10
36.000000014901168
20
61.000000014901161
10
25.000000014901165
20
61.000000014901161
10
25.000000014901165
20
69.000000014901161
10
36.000000014901168
20
69.000000014901161
0
LWPOLYLINE
5
223
100
AcDbEntity
8
0
100
AcDbPolyline
90
4
70
1
43
0.0
10
36.000000014901168
20
70.000000149011612
10
36.000000014901168
20
78.000000149011612
10
42.000000014901168
20
78.000000149011612
10
42.000000014901168
20
70.000000149011612
0
LWPOLYLINE
5
224
100
AcDbEntity
8
0
100
AcDbPolyline
90
4
70
1
43
0.0
10
37.000000014901168
20
69.000000014901161
10
48.000000014901175
20
69.000000014901161
10
48.000000014901175
20
61.000000014901161
10
37.000000014901168
20
61.000000014901161
0
LWPOLYLINE
5
225
100
AcDbEntity
8
0
100
AcDbPolyline
90
4
70
1
43
0.0
10
43.000000014901161
20
78.000000149011612
10
49.000000014901168
20
78.000000149011612
10
49.000000014901168
20
70.000000149011612
10
43.000000014901161
20
70.000000149011612
0
LWPOLYLINE
5
226
100
AcDbEntity
8
0
100
AcDbPolyline
90
4
70
1
43
0.0
10
22.000000014901161
20
70.000000149011612
10
22.000000014901161
20
78.000000149011612
10
28.000000014901161
20
78.000000149011612
10
28.000000014901161
20
70.000000149011612
0
LWPOLYLINE
5
227
100
AcDbEntity
8
0
100
AcDbPolyline
90
4
70
1
43
0.0
10
7.0000000149011621
20
78.000000149011612
10
7.0000000149011621
20
70.000000149011612
10
1.0000000149011612
20
70.000000149011612
10
1.0000000149011612
20
78.000000149011612
0
LWPOLYLINE
5
228
100
AcDbEntity
8
0
100
AcDbPolyline
90
4
70
1
43
0.0
10
50.000000014901161
20
70.000000149011612
10
50.000000014901161
20
78.000000149011612
10
56.000000014901161
20
78.000000149011612
10
56.000000014901161
20
70.000000149011612
0
LWPOLYLINE
5
229
100
AcDbEntity
8
0
100
AcDbPolyline
90
4
70
1
43
0.0
10
21.000000014901161
20
78.000000149011612
10
21.000000014901161
20
70.000000149011612
10
15.000000014901163
20
70.000000149011612
10
15.000000014901163
20
78.000000149011612
0
LWPOLYLINE
5
230
100
AcDbEntity
8
0
100
AcDbPolyline
90
4
70
1
43
0.0
10
35.000000014901161
20
70.000000149011612
10
29.000000014901165
20
70.000000149011612
10
29.000000014901165
20
78.000000149011612
10
35.000000014901161
20
78.000000149011612
0
LWPOLYLINE
5
231
100
AcDbEntity
8
0
100
AcDbPolyline
90
4
70
1
43
0.0
10
13.000000014901163
20
69.000000014901161
10
24.000000014901165
20
69.000000014901161
10
24.000000014901165
20
61.000000014901161
10
13.000000014901163
20
61.000000014901161
0
LWPOLYLINE
5
232
100
AcDbEntity
8
0
100
AcDbPolyline
90
4
70
1
43
0.0
10
1.0000000149011612
20
61.000000014901161
10
1.0000000149011612
20
69.000000014901161
10
12.000000014901161
20
69.000000014901161
10
12.000000014901161
20
61.000000014901161
0
LWPOLYLINE
5
233
100
AcDbEntity
8
0
100
AcDbPolyline
90
4
70
1
43
0.0
10
8.0000000149011612
20
78.000000149011612
10
14.000000014901165
20
78.000000149011612
10
14.000000014901165
20
70.000000149011612
10
8.0000000149011612
20
70.000000149011612
0
LWPOLYLINE
5
234
100
AcDbEntity
8
0
100
AcDbPolyline
90
4
70
1
43
0.0
10
61.000000014901168
20
61.000000014901161
10
61.000000014901168
20
69.000000014901161
10
72.000000014901175
20
69.000000014901161
10
72.000000014901175
20
61.000000014901161
0
LWPOLYLINE
5
235
100
AcDbEntity
8
0
100
AcDbPolyline
90
4
70
1
43
0.0
10
57.000000014901168
20
70.000000149011612
10
57.000000014901168
20
78.000000149011612
10
63.000000014901175
20
78.000000149011612
10
63.000000014901175
20
70.000000149011612
0
LWPOLYLINE
5
236
100
AcDbEntity
8
0
100
AcDbPolyline
90
4
70
1
43
0.0
10
169.00000231713057
20
81.000000014901161
10
159.00000231713057
20
81.000000014901161
10
159.00000231713057
20
86.584000014901164
10
169.00000231713057
20
86.584000014901164
0
LWPOLYLINE
5
237
100
AcDbEntity
8
0
100
AcDbPolyline
90
8
70
1
43
0.0
10
154.90000000000003
20
98.900000178813926
10
143.70000000000002
20
98.900000178813926
42
0.41421356237309503
10
143.00000000000003
20
98.200000178813923
10
143.00000000000003
20
90.700000178813923
42
0.41421356237309503
10
143.70000000000002
20
90.00000017881392
10
154.90000000000003
20
90.00000017881392
42
0.41421356237309503
10
155.60000000000002
20
90.700000178813923
10
155.60000000000002
20
98.200000178813923
42
0.41421356237309503
0
LWPOLYLINE
5
238
100
AcDbEntity
8
0
100
AcDbPolyline
90
4
70
1
43
0.0
10
170.0000021606684
20
90.000000014901161
10
170.0000021606684
20
98.000000014901161
10
180.0000021606684
20
98.000000014901161
10
180.0000021606684
20
90.000000014901161
0
LWPOLYLINE
5
239
100
AcDbEntity
8
0
100
AcDbPolyline
90
4
70
1
43
0.0
10
159.00000231713057
20
89.000000134110451
10
159.00000231713057
20
86.884000134110437
10
169.00000231713057
20
86.884000134110437
10
169.00000231713057
20
89.000000134110451
0
LWPOLYLINE
5
240
100
AcDbEntity
8
0
100
AcDbPolyline
90
8
70
1
43
0.0
10
141.60000000000002
20
90.700000178813923
10
141.60000000000002
20
98.200000178813923
42
0.41421356237309503
10
140.90000000000001
20
98.900000178813926
10
129.70000000000002
20
98.900000178813926
42
0.41421356237309503
10
129.00000000000003
20
98.200000178813923
10
129.00000000000003
20
90.700000178813923
42
0.41421356237309503
10
129.70000000000002
20
90.00000017881392
10
140.90000000000001
20
90.00000017881392
42
0.41421356237309503
0
LWPOLYLINE
5
241
100
AcDbEntity
8
0
100
AcDbPolyline
90
4
70
1
43
0.0
10
180.00000231713059
20
86.884000134110437
10
180.00000231713059
20
89.000000134110451
10
170.00000231713059
20
89.000000134110451
10
170.00000231713059
20
86.884000134110437
0
LWPOLYLINE
5
242
100
AcDbEntity
8
0
100
AcDbPolyline
90
4
70
1
43
0.0
10
170.00000231713059
20
81.000000014901161
10
170.00000231713059
20
86.584000014901164
10
180.00000231713059
20
86.584000014901164
10
180.00000231713059
20
81.000000014901161
0
LWPOLYLINE
5
243
100
AcDbEntity
8
0
100
AcDbPolyline
90
4
70
1
43
0.0
10
159.0000021606684
20
98.000000014901161
10
169.0000021606684
20
98.000000014901161
10
169.0000021606684
20
90.000000014901161
10
159.0000021606684
20
90.000000014901161
0
LWPOLYLINE
5
244
100
AcDbEntity
8
0
100
AcDbPolyline
90
8
70
1
43
0.0
10
71
20
90.699899402742346
10
71
20
98.199899402742346
42
-0.41421356237309503
10
71.700000000000003
20
98.899899402742349
10
82.199999999999989
20
98.899899402742349
42
-0.41421356237309503
10
82.899999999999991
20
98.199899402742346
10
82.900000000000034
20
90.699899402742346
42
-0.41421356237310991
10
82.199999999999989
20
89.999899402742344
10
71.700000000000003
20
89.999899402742344
42
-0.41421356237309503
0
LWPOLYLINE
5
245
100
AcDbEntity
8
0
100
AcDbPolyline
90
4
70
1
43
0.0
10
144.00000001490119
20
89.000000014901161
10
144.00000001490119
20
81.000000014901161
10
133.00000001490122
20
81.000000014901161
10
133.00000001490122
20
89.000000014901161
0
LWPOLYLINE
5
246
100
AcDbEntity
8
0
100
AcDbPolyline
90
8
70
1
43
0.0
10
84.700000000000003
20
89.999899402742344
42
-0.41421356237309503
10
84
20
90.699899402742346
10
84
20
98.199899402742346
42
-0.41421356237309503
10
84.700000000000003
20
98.899899402742349
10
95.199999999999989
20
98.899899402742349
42
-0.41421356237309503
10
95.900000000000006
20
98.199899402742346
10
95.900000000000034
20
90.699899402742346
42
-0.41421356237310991
10
95.199999999999989
20
89.999899402742344
0
LWPOLYLINE
5
247
100
AcDbEntity
8
0
100
AcDbPolyline
90
8
70
1
43
0.0
10
97.700000000000017
20
89.999899402742344
42
-0.41421356237309503
10
97.000000000000014
20
90.699899402742346
10
97.000000000000014
20
98.199899402742346
42
-0.41421356237309503
10
97.700000000000017
20
98.899899402742349
10
108.2
20
98.899899402742349
42
-0.41421356237309503
10
108.90000000000001
20
98.199899402742346
10
108.90000000000003
20
90.699899402742346
42
-0.41421356237310991
10
108.2
20
89.999899402742344
0
LWPOLYLINE
5
248
100
AcDbEntity
8
0
100
AcDbPolyline
90
4
70
1
43
0.0
10
85.00000001490119
20
89.000000014901161
10
96.000000014901175
20
89.000000014901161
10
96.000000014901175
20
81.000000014901161
10
85.00000001490119
20
81.000000014901161
0
LWPOLYLINE
5
249
100
AcDbEntity
8
0
100
AcDbPolyline
90
4
70
1
43
0.0
10
84.000000014901161
20
89.000000014901161
10
84.000000014901161
20
81.000000014901161
10
73.000000014901175
20
81.000000014901161
10
73.000000014901175
20
89.000000014901161
0
LWPOLYLINE
5
250
100
AcDbEntity
8
0
100
AcDbPolyline
90
8
70
1
43
0.0
10
115.7
20
90.000000178813934
42
-0.41421356237309503
10
115.00000000000001
20
90.700000178813923
10
115
20
98.200000178813923
42
-0.41421356237309503
10
115.7
20
98.900000178813926
10
126.90000000000001
20
98.900000178813926
42
-0.41421356237309503
10
127.60000000000002
20
98.200000178813923
10
127.60000000000002
20
90.700000178813923
42
-0.41421356237309503
10
126.90000000000001
20
90.00000017881392
0
LWPOLYLINE
5
251
100
AcDbEntity
8
0
100
AcDbPolyline
90
4
70
1
43
0.0
10
108.00000001490119
20
81.000000014901161
10
97.000000014901175
20
81.000000014901161
10
97.000000014901175
20
89.000000014901161
10
108.00000001490119
20
89.000000014901161
0
LWPOLYLINE
5
252
100
AcDbEntity
8
0
100
AcDbPolyline
90
4
70
1
43
0.0
10
109.0000000149012
20
81.000000014901161
10
109.0000000149012
20
89.000000014901161
10
120.00000001490119
20
89.000000014901161
10
120.00000001490119
20
81.000000014901161
0
LWPOLYLINE
5
253
100
AcDbEntity
8
0
100
AcDbPolyline
90
4
70
1
43
0.0
10
121.00000001490118
20
81.000000014901161
10
121.00000001490118
20
89.000000014901161
10
132.00000001490119
20
89.000000014901161
10
132.00000001490119
20
81.000000014901161
0
LWPOLYLINE
5
254
100
AcDbEntity
8
0
100
AcDbPolyline
90
4
70
1
43
0.0
10
70.000000014901161
20
90.000000149011612
10
64.000000014901161
20
90.000000149011612
10
64.000000014901161
20
98.000000149011612
10
70.000000014901161
20
98.000000149011612
0
LWPOLYLINE
5
255
100
AcDbEntity
8
0
100
AcDbPolyline
90
4
70
1
43
0.0
10
60.000000014901161
20
89.000000014901161
10
60.000000014901161
20
81.000000014901161
10
49.000000014901168
20
81.000000014901161
10
49.000000014901168
20
89.000000014901161
0
LWPOLYLINE
5
256
100
AcDbEntity
8
0
100
AcDbPolyline
90
4
70
1
43
0.0
10
36.000000014901168
20
81.000000014901161
10
25.000000014901165
20
81.000000014901161
10
25.000000014901165
20
89.000000014901161
10
36.000000014901168
20
89.000000014901161
0
LWPOLYLINE
5
257
100
AcDbEntity
8
0
100
AcDbPolyline
90
4
70
1
43
0.0
10
36.000000014901168
20
90.000000149011612
10
36.000000014901168
20
98.000000149011612
10
42.000000014901168
20
98.000000149011612
10
42.000000014901168
20
90.000000149011612
0
LWPOLYLINE
5
258
100
AcDbEntity
8
0
100
AcDbPolyline
90
4
70
1
43
0.0
10
37.000000014901168
20
89.000000014901161
10
48.000000014901175
20
89.000000014901161
10
48.000000014901175
20
81.000000014901161
10
37.000000014901168
20
81.000000014901161
0
LWPOLYLINE
5
259
100
AcDbEntity
8
0
100
AcDbPolyline
90
4
70
1
43
0.0
10
43.000000014901161
20
98.000000149011612
10
49.000000014901168
20
98.000000149011612
10
49.000000014901168
20
90.000000149011612
10
43.000000014901161
20
90.000000149011612
0
LWPOLYLINE
5
260
100
AcDbEntity
8
0
100
AcDbPolyline
90
4
70
1
43
0.0
10
22.000000014901161
20
90.000000149011612
10
22.000000014901161
20
98.000000149011612
10
28.000000014901161
20
98.000000149011612
10
28.000000014901161
20
90.000000149011612
0
LWPOLYLINE
5
261
100
AcDbEntity
8
0
100
AcDbPolyline
90
4
70
1
43
0.0
10
7.0000000149011621
20
98.000000149011612
10
7.0000000149011621
20
90.000000149011612
10
1.0000000149011612
20
90.000000149011612
10
1.0000000149011612
20
98.000000149011612
0
LWPOLYLINE
5
262
100
AcDbEntity
8
0
100
AcDbPolyline
90
4
70
1
43
0.0
10
50.000000014901161
20
90.000000149011612
10
50.000000014901161
20
98.000000149011612
10
56.000000014901161
20
98.000000149011612
10
56.000000014901161
20
90.000000149011612
0
LWPOLYLINE
5
263
100
AcDbEntity
8
0
100
AcDbPolyline
90
4
70
1
43
0.0
10
21.000000014901161
20
98.000000149011612
10
21.000000014901161
20
90.000000149011612
10
15.000000014901163
20
90.000000149011612
10
15.000000014901163
20
98.000000149011612
0
LWPOLYLINE
5
264
100
AcDbEntity
8
0
100
AcDbPolyline
90
4
70
1
43
0.0
10
35.000000014901161
20
90.000000149011612
10
29.000000014901165
20
90.000000149011612
10
29.000000014901165
20
98.000000149011612
10
35.000000014901161
20
98.000000149011612
0
LWPOLYLINE
5
265
100
AcDbEntity
8
0
100
AcDbPolyline
90
4
70
1
43
0.0
10
13.000000014901163
20
89.000000014901161
10
24.000000014901165
20
89.000000014901161
10
24.000000014901165
20
81.000000014901161
10
13.000000014901163
20
81.000000014901161
0
LWPOLYLINE
5
266
100
AcDbEntity
8
0
100
AcDbPolyline
90
4
70
1
43
0.0
10
1.0000000149011612
20
81.000000014901161
10
1.0000000149011612
20
89.000000014901161
10
12.000000014901161
20
89.000000014901161
10
12.000000014901161
20
81.000000014901161
0
LWPOLYLINE
5
267
100
AcDbEntity
8
0
100
AcDbPolyline
90
4
70
1
43
0.0
10
8.0000000149011612
20
98.000000149011612
10
14.000000014901165
20
98.000000149011612
10
14.000000014901165
20
90.000000149011612
10
8.0000000149011612
20
90.000000149011612
0
LWPOLYLINE
5
268
100
AcDbEntity
8
0
100
AcDbPolyline
90
4
70
1
43
0.0
10
61.000000014901168
20
81.000000014901161
10
61.000000014901168
20
89.000000014901161
10
72.000000014901175
20
89.000000014901161
10
72.000000014901175
20
81.000000014901161
0
LWPOLYLINE
5
269
100
AcDbEntity
8
0
100
AcDbPolyline
90
4
70
1
43
0.0
10
57.000000014901168
20
90.000000149011612
10
57.000000014901168
20
98.000000149011612
10
63.000000014901175
20
98.000000149011612
10
63.000000014901175
20
90.000000149011612
0
LWPOLYLINE
5
270
100
AcDbEntity
8
0
100
AcDbPolyline
90
4
70
1
43
0.0
10
169.00000231713057
20
101.00000001490116
10
159.00000231713057
20
101.00000001490116
10
159.00000231713057
20
106.58400001490116
10
169.00000231713057
20
106.58400001490116
0
LWPOLYLINE
5
271
100
AcDbEntity
8
0
100
AcDbPolyline
90
8
70
1
43
0.0
10
154.90000000000003
20
118.90000017881393
10
143.70000000000002
20
118.90000017881393
42
0.41421356237309503
10
143.00000000000003
20
118.20000017881392
10
143.00000000000003
20
110.70000017881392
42
0.41421356237309503
10
143.70000000000002
20
110.00000017881392
10
154.90000000000003
20
110.00000017881392
42
0.41421356237309503
10
155.60000000000002
20
110.70000017881392
10
155.60000000000002
20
118.20000017881392
42
0.41421356237309503
0
LWPOLYLINE
5
272
100
AcDbEntity
8
0
100
AcDbPolyline
90
4
70
1
43
0.0
10
170.0000021606684
20
110.00000001490116
10
170.0000021606684
20
118.00000001490116
10
180.0000021606684
20
118.00000001490116
10
180.0000021606684
20
110.00000001490116
0
LWPOLYLINE
5
273
100
AcDbEntity
8
0
100
AcDbPolyline
90
4
70
1
43
0.0
10
159.00000231713057
20
109.00000013411045
10
159.00000231713057
20
106.88400013411044
10
169.00000231713057
20
106.88400013411044
10
169.00000231713057
20
109.00000013411045
0
LWPOLYLINE
5
274
100
AcDbEntity
8
0
100
AcDbPolyline
90
8
70
1
43
0.0
10
141.60000000000002
20
110.70000017881392
10
141.60000000000002
20
118.20000017881392
42
0.41421356237309503
10
140.90000000000001
20
118.90000017881393
10
129.70000000000002
20
118.90000017881393
42
0.41421356237309503
10
129.00000000000003
20
118.20000017881392
10
129.00000000000003
20
110.70000017881392
42
0.41421356237309503
10
129.70000000000002
20
110.00000017881392
10
140.90000000000001
20
110.00000017881392
42
0.41421356237309503
0
LWPOLYLINE
5
275
100
AcDbEntity
8
0
100
AcDbPolyline
90
4
70
1
43
0.0
10
180.00000231713059
20
106.88400013411044
10
180.00000231713059
20
109.00000013411045
10
170.00000231713059
20
109.00000013411045
10
170.00000231713059
20
106.88400013411044
0
LWPOLYLINE
5
276
100
AcDbEntity
8
0
100
AcDbPolyline
90
4
70
1
43
0.0
10
170.00000231713059
20
101.00000001490116
10
170.00000231713059
20
106.58400001490116
10
180.00000231713059
20
106.58400001490116
10
180.00000231713059
20
101.00000001490116
0
LWPOLYLINE
5
277
100
AcDbEntity
8
0
100
AcDbPolyline
90
4
70
1
43
0.0
10
159.0000021606684
20
118.00000001490116
10
169.0000021606684
20
118.00000001490116
10
169.0000021606684
20
110.00000001490116
10
159.0000021606684
20
110.00000001490116
0
LWPOLYLINE
5
278
100
AcDbEntity
8
0
100
AcDbPolyline
90
8
70
1
43
0.0
10
71
20
110.69989940274235
10
71
20
118.19989940274235
42
-0.41421356237309503
10
71.700000000000003
20
118.89989940274235
10
82.199999999999989
20
118.89989940274235
42
-0.41421356237309503
10
82.899999999999991
20
118.19989940274235
10
82.900000000000034
20
110.69989940274235
42
-0.41421356237310991
10
82.199999999999989
20
109.99989940274234
10
71.700000000000003
20
109.99989940274234
42
-0.41421356237309503
0
LWPOLYLINE
5
279
100
AcDbEntity
8
0
100
AcDbPolyline
90
4
70
1
43
0.0
10
144.00000001490119
20
109.00000001490116
10
144.00000001490119
20
101.00000001490116
10
133.00000001490122
20
101.00000001490116
10
133.00000001490122
20
109.00000001490116
0
LWPOLYLINE
5
280
100
AcDbEntity
8
0
100
AcDbPolyline
90
8
70
1
43
0.0
10
84.700000000000003
20
109.99989940274234
42
-0.41421356237309503
10
84
20
110.69989940274235
10
84
20
118.19989940274235
42
-0.41421356237309503
10
84.700000000000003
20
118.89989940274235
10
95.199999999999989
20
118.89989940274235
42
-0.41421356237309503
10
95.900000000000006
20
118.19989940274235
10
95.900000000000034
20
110.69989940274235
42
-0.41421356237310991
10
95.199999999999989
20
109.99989940274234
0
LWPOLYLINE
5
281
100
AcDbEntity
8
0
100
AcDbPolyline
90
8
70
1
43
0.0
10
97.700000000000017
20
109.99989940274234
42
-0.41421356237309503
10
97.000000000000014
20
110.69989940274235
10
97.000000000000014
20
118.19989940274235
42
-0.41421356237309503
10
97.700000000000017
20
118.89989940274235
10
108.2
20
118.89989940274235
42
-0.41421356237309503
10
108.90000000000001
20
118.19989940274235
10
108.90000000000003
20
110.69989940274235
42
-0.41421356237310991
10
108.2
20
109.99989940274234
0
LWPOLYLINE
5
282
100
AcDbEntity
8
0
100
AcDbPolyline
90
4
70
1
43
0.0
10
85.00000001490119
20
109.00000001490116
10
96.000000014901175
20
109.00000001490116
10
96.000000014901175
20
101.00000001490116
10
85.00000001490119
20
101.00000001490116
0
LWPOLYLINE
5
283
100
AcDbEntity
8
0
100
AcDbPolyline
90
4
70
1
43
0.0
10
84.000000014901161
20
109.00000001490116
10
84.000000014901161
20
101.00000001490116
10
73.000000014901175
20
101.00000001490116
10
73.000000014901175
20
109.00000001490116
0
LWPOLYLINE
5
284
100
AcDbEntity
8
0
100
AcDbPolyline
90
8
70
1
43
0.0
10
115.7
20
110.00000017881393
42
-0.41421356237309503
10
115.00000000000001
20
110.70000017881392
10
115
20
118.20000017881392
42
-0.41421356237309503
10
115.7
20
118.90000017881393
10
126.90000000000001
20
118.90000017881393
42
-0.41421356237309503
10
127.60000000000002
20
118.20000017881392
10
127.60000000000002
20
110.70000017881392
42
-0.41421356237309503
10
126.90000000000001
20
110.00000017881392
0
LWPOLYLINE
5
285
100
AcDbEntity
8
0
100
AcDbPolyline
90
4
70
1
43
0.0
10
108.00000001490119
20
101.00000001490116
10
97.000000014901175
20
101.00000001490116
10
97.000000014901175
20
109.00000001490116
10
108.00000001490119
20
109.00000001490116
0
LWPOLYLINE
5
286
100
AcDbEntity
8
0
100
AcDbPolyline
90
4
70
1
43
0.0
10
109.0000000149012
20
101.00000001490116
10
109.0000000149012
20
109.00000001490116
10
120.00000001490119
20
109.00000001490116
10
120.00000001490119
20
101.00000001490116
0
LWPOLYLINE
5
287
100
AcDbEntity
8
0
100
AcDbPolyline
90
4
70
1
43
0.0
10
121.00000001490118
20
101.00000001490116
10
121.00000001490118
20
109.00000001490116
10
132.00000001490119
20
109.00000001490116
10
132.00000001490119
20
101.00000001490116
0
LWPOLYLINE
5
288
100
AcDbEntity
8
0
100
AcDbPolyline
90
4
70
1
43
0.0
10
70.000000014901161
20
110.00000014901161
10
64.000000014901161
20
110.00000014901161
10
64.000000014901161
20
118.00000014901161
10
70.000000014901161
20
118.00000014901161
0
LWPOLYLINE
5
289
100
AcDbEntity
8
0
100
AcDbPolyline
90
4
70
1
43
0.0
10
60.000000014901161
20
109.00000001490116
10
60.000000014901161
20
101.00000001490116
10
49.000000014901168
20
101.00000001490116
10
49.000000014901168
20
109.00000001490116
0
LWPOLYLINE
5
290
100
AcDbEntity
8
0
100
AcDbPolyline
90
4
70
1
43
0.0
10
36.000000014901168
20
101.00000001490116
10
25.000000014901165
20
101.00000001490116
10
25.000000014901165
20
109.00000001490116
10
36.000000014901168
20
109.00000001490116
0
LWPOLYLINE
5
291
100
AcDbEntity
8
0
100
AcDbPolyline
90
4
70
1
43
0.0
10
36.000000014901168
20
110.00000014901161
10
36.000000014901168
20
118.00000014901161
10
42.000000014901168
20
118.00000014901161
10
42.000000014901168
20
110.00000014901161
0
LWPOLYLINE
5
292
100
AcDbEntity
8
0
100
AcDbPolyline
90
4
70
1
43
0.0
10
37.000000014901168
20
109.00000001490116
10
48.000000014901175
20
109.00000001490116
10
48.000000014901175
20
101.00000001490116
10
37.000000014901168
20
101.00000001490116
0
LWPOLYLINE
5
293
100
AcDbEntity
8
0
100
AcDbPolyline
90
4
70
1
43
0.0
10
43.000000014901161
20
118.00000014901161
10
49.000000014901168
20
118.00000014901161
10
49.000000014901168
20
110.00000014901161
10
43.000000014901161
20
110.00000014901161
0
LWPOLYLINE
5
294
100
AcDbEntity
8
0
100
AcDbPolyline
90
4
70
1
43
0.0
10
22.000000014901161
20
110.00000014901161
10
22.000000014901161
20
118.00000014901161
10
28.000000014901161
20
118.00000014901161
10
28.000000014901161
20
110.00000014901161
0
LWPOLYLINE
5
295
100
AcDbEntity
8
0
100
AcDbPolyline
90
4
70
1
43
0.0
10
7.0000000149011621
20
118.00000014901161
10
7.0000000149011621
20
110.00000014901161
10
1.0000000149011612
20
110.00000014901161
10
1.0000000149011612
20
118.00000014901161
0
LWPOLYLINE
5
296
100
AcDbEntity
8
0
100
AcDbPolyline
90
4
70
1
43
0.0
10
50.000000014901161
20
110.00000014901161
10
50.000000014901161
20
118.00000014901161
10
56.000000014901161
20
118.00000014901161
10
56.000000014901161
20
110.00000014901161
0
LWPOLYLINE
5
297
100
AcDbEntity
8
0
100
AcDbPolyline
90
4
70
1
43
0.0
10
21.000000014901161
20
118.00000014901161
10
21.000000014901161
20
110.00000014901161
10
15.000000014901163
20
110.00000014901161
10
15.000000014901163
20
118.00000014901161
0
LWPOLYLINE
5
298
100
AcDbEntity
8
0
100
AcDbPolyline
90
4
70
1
43
0.0
10
35.000000014901161
20
110.00000014901161
10
29.000000014901165
20
110.00000014901161
10
29.000000014901165
20
118.00000014901161
10
35.000000014901161
20
118.00000014901161
0
LWPOLYLINE
5
299
100
AcDbEntity
8
0
100
AcDbPolyline
90
4
70
1
43
0.0
10
13.000000014901163
20
109.00000001490116
10
24.000000014901165
20
109.00000001490116
10
24.000000014901165
20
101.00000001490116
10
13.000000014901163
20
101.00000001490116
0
LWPOLYLINE
5
300
100
AcDbEntity
8
0
100
AcDbPolyline
90
4
70
1
43
0.0
10
1.0000000149011612
20
101.00000001490116
10
1.0000000149011612
20
109.00000001490116
10
12.000000014901161
20
109.00000001490116
10
12.000000014901161
20
101.00000001490116
0
LWPOLYLINE
5
301
100
AcDbEntity
8
0
100
AcDbPolyline
90
4
70
1
43
0.0
10
8.0000000149011612
20
118.00000014901161
10
14.000000014901165
20
118.00000014901161
10
14.000000014901165
20
110.00000014901161
10
8.0000000149011612
20
110.00000014901161
0
LWPOLYLINE
5
302
100
AcDbEntity
8
0
100
AcDbPolyline
90
4
70
1
43
0.0
10
61.000000014901168
20
101.00000001490116
10
61.000000014901168
20
109.00000001490116
10
72.000000014901175
20
109.00000001490116
10
72.000000014901175
20
101.00000001490116
0
LWPOLYLINE
5
303
100
AcDbEntity
8
0
100
AcDbPolyline
90
4
70
1
43
0.0
10
57.000000014901168
20
110.00000014901161
10
57.000000014901168
20
118.00000014901161
10
63.000000014901175
20
118.00000014901161
10
63.000000014901175
20
110.00000014901161
0
ENDSEC
0
SECTION
2
OBJECTS
0
DICTIONARY
5
C
100
AcDbDictionary
3
ACAD_GROUP
350
D
3
ACAD_MLINESTYLE
350
17
0
DICTIONARY
5
D
100
AcDbDictionary
0
DICTIONARY
5
1A
330
C
100
AcDbDictionary
0
DICTIONARY
5
17
100
AcDbDictionary
0
ENDSEC
0
EOF
